Song name
# A B C D E F G H I J K L M N O P Q R S T U V W X Y Z

Steel Attack - Village Of Agabha tab

Artist: Steel Attack
Title:  Village Of Agabha
Album:  Where Mankind Fails
Transcribed by Roger H. Beck (July 26, 2001)
e-mail address: roger_h_beck@hotmail.com

Standard tuning


Intro/Guitar Solo 1
Riff 1 (2x)

e(---------------------------------------------------------------)
B(---------------------------------------------------------------)
G(----------------------------------------------9-7=-------------)
D(---7-9=-----9-7-5-/4=-5-4-5=-----7-9=-----9-7------9-7-/5-7=---)
A(---------------------------------------------------------------)
E(--------0-0------------------0-0------0-0----------------------)
P.M.      . .                  . .      . .


Theme 1
Main Riff (2x)

e(-------------------------------------------------------)
B(-------------------------------------------------------)
G(---2-4-4-4-------------------2-4-4-4-----5-/4-/5-/7=---)
D(---4-5-5-5-------------------4-5-5-5-----5-/4-/5-/7=---)
A(-----------------------------------------3-/2-/3-/5=---)
E(-----------0-0-0--0-0-0--0-0---------0-0---------------)
P.M.         . . .  . . .  . .         . .


Interlude 1
Riff 2 (4x)

e(--------------10----------------------10------------)
B(---8-12-10-12-12-12-10-12--8-12-10-12-12-12-10-12---)
G(---9-12-11-12----12-11-12--9-12-11-12----12-11-12---)
D(----------------------------------------------------)
A(----------------------------------------------------)
E(----------------------------------------------------)


Verse 1
Riff 3 (2x)
                                     1st ending
e(---------------------------------(---------------------------)
B(---------------------------------(---------------------------)
G(---7-/9-9-9----------------------(-7-/9-9-9-/5=-5-5-/7=-7=---)
D(---7-/9-9-9-----5-7-----7--9-----(-7-/9-9-9-/5=-5-5-/7=-7=---)
A(---5-/7-7-7-----7-9-----9-10-----(-5-/7-7-7-/3=-3-3-/5=-5=---)
E(------------0-0-----0-0------0-0-(---------------------------)
P.M.          . .     . .      . .

     2nd ending
e(-------------------------------)
B(-------------------------------)
G(---7-/9-9-9-----7=---/5=-/7=---)
D(---7-/9-9-9-----7=---/5=-/7=---)
A(---5-/7-7-7-----5=---/3=-/5=---)
E(------------0-0----------------)
P.M.          . .


Theme 2     - Main Riff (2x)
Verse 2     - Riff 3    (2x)
Interlude 2 - Riff 2    (4x)


Pre-Chorus 1
Riff 4

e(----------------------------------------------------------|
B(----------------------------------------------------------|
G(---5=---/4=---/7=---/9--------9---------9--------9--------|
D(---5=---/4=---/7=---/9--------9---------9--------9--------|
A(---3=---/2=---/5=---/7--------7---------7--------7--------|
E(-----------------------000000---000000----000000---000000-|
P.M.                     ......   ......    ......   ......

e(--------------------------------------------)
B(--------------------------------------------)
G(---5=---/4=---/7=---/9--------9---------9---)
D(---5=---/4=---/7=---/9--------9---------9---)
A(---3=---/2=---/5=---/7--------7---------7---)
E(-----------------------000000---000000------)
P.M.                     ......   ......


Chorus 1
Riff 5 (2x)

e(----------------------------------------------------------------------)
B(----------------------------------------------------------------------)
G(---9=---/7=---/9-------9-------9-------9-------9=---/7=---/5=---/7=---)
D(---9=---/7=---/9-------9-------9-------9-------9=---/7=---/5=---/7=---)
A(---7=---/5=---/7-------7-------7-------7-------7=---/5=---/3=---/5=---)
E(-----------------0-0-0---0-0-0---0-0-0---0-0-0------------------------)
P.M.               . . .   . . .   . . .   . . .


Guitar Solo 2
Riff 6

e(---------------------------)
B(---------------------------)
G(---/9=---/7=---/9=---/7=---)
D(---/9=---/7=---/9=---/7=---)
A(---/7=---/5=---/7=---/5=---)
E(---------------------------)


Main Riff variation (4x)
                                              1st/2nd/3rd end. 4th ending
e(-------------------------------------------(---------------)------------)
B(-------------------------------------------(---------------)------------)
G(---7-/9-9-9-------------------7-/9-9-9-----(-5-/4-/5-/7=---)-4-/5-/7=---)
D(---7-/9-9-9-------------------7-/9-9-9-----(-5-/4-/5-/7=---)-4-/5-/7=---)
A(---5-/7-7-7-------------------5-/7-7-7-----(-3-/2-/3-/5=---)-2-/3-/5=---)
E(------------0-0-0--0-0-0--0-0----------0-0-(---------------)------------)
P.M.          . . .  . . .  . .          . .


Verse 3 - Riff 3 (2x)
Theme 3 - Main Riff (2x)


Bridge
Riff 7 (2x)
                                             1st ending
e(----------------------------------------(--------------------|
B(----------------------------------------(--------------------|
G(---5--------5---------4--------4--------(--7--------7--------|
D(---5--------5---------4--------4--------(--7--------7--------|
A(---3-333333-3-333333-/2-222222-2-222222-(-/5-555555-5-555555-|
E(----------------------------------------(--------------------|
P.M.   ......   ......    ......   ......      ......   ......

                            2nd ending
e(-----------------------)------------------------)
B(-----------------------)------------------------)
G(---9--------9----------)--9--------9--------9---)
D(---9--------9----------)--9--------9--------9---)
A(--/7-777777-7-777777---)-/7-777777-7-777777-7---)
E(-----------------------)------------------------)
P.M.   ......   ......        ......   ......


Chorus 2      - Riff 5 (2x)
Guitar Solo 3 - Riff 6


Coda
Riff 8 (3x)

e(---------------------------------------------------------------|
B(---------------------------------------------------------------|
G(---------------------------------------------------------------|
D(-------5---4-5---9---5-----4=-5=-----5---4-5---9---5-----4=-5=-|
A(---------------------------------------------------------------|
E(---0-0---0-----0---0---0-0-------0-0---0-----0---0---0-0-------|
P.M. . .   .     .   .   . .       . .   .     .   .   . .

e(--------------------------------------------------)
B(--------------------------------------------------)
G(---------------------------------5=----7=----4=---)
D(-------5---4-5---9---5-----4=-5=-5=----7=----4=---)
A(---------------------------------3=-3-/5=-5-/2=---)
E(---0-0---0-----0---0---0-0------------------------)
P.M. . .   .     .   .   . .          .     .


Riff 8 addition

e(---------------------------)
B(---------------------------)
G(---5=----7=----4=----------)
D(---5=----7=----4=---2===---)
A(---3=-3-/5=-5-/2=---2===---)
E(--------------------0===---)
P.M.    .     .


Symbol explanation:


P.M.  Palm Mute (notes marked with dot)
/     slide
=     sustained


Note: If you find any mistakes please send e-mail
Tap to rate this tab
 
# A B C D E F G H I J K L M N O P Q R S T U V W X Y Z