Steel Attack - Where Mankind Fails tab

Artist: Steel Attack
Title:  Where Mankind Fails
Album:  Where Mankind Fails
Transcribed by Roger H. Beck (July 24, 2001)
e-mail address: roger_h_beck@hotmail.com

Standard tuning


Theme 1
Main Riff

e(-------------------------------------------------------------------|
B(-------------------------------------------------------------------|
G(----------------------------------------------------------3-3-3=---|
D(---0-0-12-0-0-7-0-0-10-0-0-8-0-0-7=--0-0-12-0-0-7-0-0-8=--3-3-3=---|
A(----------------------------------------------------------1-1-1=---|
E(-------------------------------------------------------------------|
P.M. . .    . .   . .    . .   . .     . .    . .   . .

e(-------------------------------------------------------------)
B(-------------------------------------------------------------)
G(-------------------------------------3-/5-/7-/3=--/5-5-5-5---)
D(---0-0-12-0-0-7-0-0-10-0-0-8-0-0-7=--3-/5-/7-/3=--/5-5-5-5---)
A(-------------------------------------1-/3-/5-/1=--/3-3-3-3---)
E(-------------------------------------------------------------)
P.M. . .    . .   . .    . .   . .


Guitar Solo 1

e(-13-10----------10-13-10----------10-15-12----------12-15-12----------12-|
B(-------11----11----------11----11----------13----13----------13----13----|
G(----------10----------------10----------------12----------------12-------|
D(-------------------------------------------------------------------------|
A(-------------------------------------------------------------------------|
E(-------------------------------------------------------------------------|

e(-17-13-------------------------------------------------------)
B(-------15----------------------------------------------15=---)
G(----------14-------------------12-14-15-14-12----------------)
D(-------------15-------12-14-15----------------15-14-12-------)
A(----------------17=------------------------------------------)
E(-------------------------------------------------------------)


Verse 1
Riff 1 (2x)

e(--------------------------------------|
B(--------------------------------------|
G(---7-----------------------------5=---|
D(---7-----------------------------5=---|
A(---5-5-5-5-5-5-5-5-5-5-5-7-7-8-8-3=---|
E(--------------------------------------|
P.M.   . . . . . . . . . . . . . .

e(------------------------------------------------------)
B(------------------------------------------------------)
G(--/7---------------------------------3-3-5-5----------)
D(--/7---------------------5-5-7-7-7-7-5-5-7-7-7-7-5=---)
A(--/5-5-5-5-5-5-5-5-5-5-5-7-7-8-8-8-8---------8-8-7=---)
E(------------------------------------------------------)
P.M.   . . . . . . . . . . . . . . . . . . . . . .


Pre-Chorus 1
Riff 2 (2x)

e(----------------------------------------------------------------|
B(----------------------------------------------------------------|
G(---3------------------------------5-----------------------------|
D(---3------------------------------5-----------------------------|
A(---1-1-1-1-1-1-1-1-1-1-1-1-1-1-1-/3-3-3-3-3-3-3-3-3-3-3-3-3-3-3-|
E(----------------------------------------------------------------|
P.M.   . . . . . . . . . . . . . .    . . . . . . . . . . . . . .

                                       1st ending
e(---------------------------------(------------------)
B(---------------------------------(------------------)
G(---3-----------------------------(---3----5----7=---)
D(---3-----------------------------(---3----5----7=---)
A(--/1-1-1-1-1-1-1-1-1-1-1-1-1-1-1-(---1-1-/3-3-/5=---)
E(---------------------------------(------------------)
P.M.   . . . . . . . . . . . . . .       .    .

     2nd ending                     alt. ending
e(--------------------------)     e(------------)
B(---------------------7=---)     B(------------)
G(---2=-----------5--8-8=---)     G(------------)
D(---2=-------4-7-7-10------)     D(---5=-/7=---)
A(---0=---3-6-6-9-----------)     A(---5=-/7=---)
E(--------5-8---------------)     E(---3=-/5=---)


Theme 2      - Main Riff
Verse 2      - Riff 1 (2x)
Pre-Chorus 2 - Riff 2 (2x; with alt. ending 2nd time)


Chorus 1
Riff 3

e(------------------------------------------------------)----------|
B(------------------------------------------------------)----------|
G(---7=---/3=---/5=------------7=---/3=---/5=------5=---)---7===---|
D(---7=---/3=---/5=---3=-/7=---7=---/3=---/5=---3=-5=---)---7===---|
A(---5=---/1=---/3=---3=-/7=---5=---/1=---/3=---3=-3=---)---5===---|
E(--------------------1=-/5=--------------------1=------)----------|


Guitar Solo 2
Riff 4 (2x)
                                                1st end.  2nd ending
e(--------------------------------------------(---------)------------)
B(--------------------------------------------(---------)------------)
G(---9---------10-/9---------10-/9---------10-(---/7=---)---/5--/7---)
D(---9---------10-/9---------10-/9---------10-(---/7=---)---/5--/7---)
A(---7-7-7-7-7-/8-/7-7-7-7-7-/8-/7-7-7-7-7-/8-(---/5=---)---/3--/5---)
E(--------------------------------------------(---------)------------)
P.M.   . . . .       . . . .       . . . .


Riff 5 (2x)
                                               1st end. 2nd ending
e(--------------------------------------------(--------)-----------)
B(--------------------------------------------(--------)-----------)
G(---9----------5-/4----------5-/4----------5-(---2=---)-----------)
D(---9----------5-/4----------5-/4----------5-(---2=---)---5--/7---)
A(---7-7-7-7-7-/3-/2-2-2-2-2-/3-/2-2-2-2-2-/3-(---0=---)---5--/7---)
E(--------------------------------------------(--------)---3--/5---)
P.M.   . . . .       . . . .       . . . .


Riff 4 (3x)


Riff 4 variation

e(-----------------------------------------)
B(-----------------------------------------)
G(---9---------10-/9---------10------------)
D(---9---------10-/9---------10-5=---/7=---)
A(---7-7-7-7-7-/8-/7-7-7-7-7-/8-5=---/7=---)
E(------------------------------3=---/5=---)
P.M.   . . . .       . . . .


Pre-Chorus 3 - Riff 2 (2x; with alt. ending 2nd time)
Chorus 2     - Riff 3 (2x)


Chorus 3
Riff 3 variation (7x until fade out)

e(-------------------------------------------------------------------|
B(-------------------------------------------------------------------|
G(-------------------------------------------------------------------|
D(-------------------------------------------------------------------|
A(---5-5-5-5-5-5-5-5-5-5-5-5-5-5-5-5-1-1-1-1-1-1-1-1-1-1-1-1-1-1-1-1-|
E(-------------------------------------------------------------------|
P.M. . . . . . . . . . . . . . . . . . . . . . . . . . . . . . . . .

                                       1st/3rd/5th/7th ending
e(-----------------------------------(---------------------------------)
B(-----------------------------------(---------------------------------)
G(-----------------------------------(---------------------------------)
D(-----------------------------------(---------------------------------)
A(---3-3-3-3-3-3-3-3-3-3-3-3-3-3-3-3-(---------------------------------)
E(-----------------------------------(-1-1-1-1-1-1-1-1-5-5-5-5-5-5-5-5-)
P.M. . . . . . . . . . . . . . . . .   . . . . . . . . . . . . . . . .

     2nd/4th/6th ending
e(-------------------------------------)
B(-------------------------------------)
G(-------------------------------------)
D(-------------------------------------)
A(-------------------3-3-3-3-3-3-3-3---)
E(---1-1-1-1-1-1-1-1-------------------)
P.M. . . . . . . . . . . . . . . . .


Symbol explanation:


P.M.  Palm Mute (notes marked with dot)
/     slide
=     sustained


Note: If you find any mistakes please send e-mail
Tap to rate this tab
 
# A B C D E F G H I J K L M N O P Q R S T U V W X Y Z