Steel Attack - Thunder Knight tab

Artist: Steel Attack
Title:  Thunder Knight
Album:  Where Mankind Fails
Transcribed by Roger H. Beck (July 31, 2001)
e-mail address: roger_h_beck@hotmail.com

Standard tuning


Intro/Theme 1
Main Riff (4x)

e(----------------------------------------------------------------------)
B(----------------------------------------------------------------------)
G(----------------------------------------------------------------------)
D(--------9--9-7-7-5-5-/4-4-----4-4-5-5------9--9-7-7-5-5-/4-4-----5=---)
A(-------10-10-9-9-7-7-/5-5-5-5-5-5-7-7-----10-10-9-9-7-7-/5-5-5-5-7=---)
E(---0-0--------------------7-7---------0-0--------------------7-7------)
P.M. . .                    . .         . .                    . .


Main Riff addition 1

e(--------------------)
B(--------------------)
G(---------------4=---)
D(---2=---2-4-5=-5=---)
A(---3=---3-5-7=------)
E(--------------------)


Main Riff (2x)


Main Riff addition 2

e(--------------------)
B(--------------------)
G(--------------------)
D(---2=---2-4-0=-4=---)
A(---3=---3-5-2=-5=---)
E(--------------------)


Verse 1
Riff 1 (2x)

e(---------------------------------------------|
B(---------------------------------------------|
G(-------9=-9=-----7-/9=-9=-----12--------7=---|
D(-------9=-9=-----7-/9=-9=-----12----9---7=---|
A(-------7=-7=-----5-/7=-7=-----10---10---5=---|
E(---0-0-------0-0----------0-0----0----0------|
P.M. . .       . .          . .    .    .

e(--------------------------------------------)
B(--------------------------------------------)
G(-------9=-9=-----7-/9=-9=-----12---5---7=---)
D(-------9=-9=-----7-/9=-9=-----12---5---7=---)
A(-------7=-7=-----5-/7=-7=-----10---3---5=---)
E(---0-0-------0-0----------0-0----0---0------)
P.M. . .       . .          . .    .   .


Chorus 1
Riff 2 (2x)

e(---------------------------------------------------|
B(---------------------------------------------------|
G(-----------------------------------4-2-----5-4-2---|
D(-----------9=--------7=--------5=--5-4-5-4-7-5-4-4-|
A(----------10=--------9=--------7=------7-5-------5-|
E(---0-0--0-----0-0--0----0-0--0---------------------|
P.M. . .  .     . .  .    . .  .     . . . . . . . .

e(----------------------------------------)
B(----------------------------------------)
G(-------------------------5=---7=---9=---)
D(-----------9=--------7=--5=---7=---9=---)
A(----------10=--------9=--3=---5=---7=---)
E(---0-0--0-----0-0--0--------0----0------)
P.M. . .  .     . .  .        .    .


Theme 2  - Main Riff (2x)
           Main Riff addition 1
Verse 2  - Riff 1    (2x)
Chorus 2 - Riff 2    (2x)


Guitar Solo 1
Riff 3 (2x)

e(--------------------------------------------------)
B(--------------------------------------------------)
G(---9=---/7=---/9=---/7=---/5=---/7=---/5=---/4=---)
D(---9=---/7=---/9=---/7=---/5=---/7=---/5=---/4=---)
A(---7=---/5=---/7=---/5=---/3=---/5=---/3=---/2=---)
E(--------------------------------------------------)


Bridge
Riff 4 (2x)

e(-------------------------------------------------------|
B(-------------------------------------------------------|
G(--------------------------------------5=-5=-/7=-7=-7-7-|
D(--------------------------------------5=-5=-/7=-7=-7-7-|
A(---10-----9-----10-----9-----10---9---3=-3=-/5=-5=-5-5-|
E(------0-0---0-0----0-0---0-0----0---0------------------|
P.M.    . .   . .    . .   . .    .   .

e(--------------------------------------------------------)
B(--------------------------------------------------------)
G(--------------------------------------7=-7=-/5=---/7=---)
D(--------------------------------------7=-7=-/5=---/7=---)
A(---10-----9-----10-----9-----10---9---5=-5=-/3=---/5=---)
E(------0-0---0-0----0-0---0-0----0---0-------------------)
P.M.    . .   . .    . .   . .    .   .


Interlude 1
Riff 5 (3x)

e(-----------------------------------------------------------------------|
B(-----------------------------------------------------------------------|
G(---12=-11-12-14-/16-14-12=-/11-12-14-/16-14-12/-11=-12-11-12-14-12-11=-|
D(-----------------------------------------------------------------------|
A(-----------------------------------------------------------------------|
E(-----------------------------------------------------------------------|

e(---151412--------------------------------------------------------------|
B(----------151312-------------------------------------------------------|
G(-----------------141211=---12=-11-12-14-/16-14-12=-/11-12-14-/16-14-12-|
D(-----------------------------------------------------------------------|
A(-----------------------------------------------------------------------|
E(-----------------------------------------------------------------------|

e(-------------------------------------)
B(---12=-13-12-13-15-13-12-------------)
G(-------------------------14=---11=---)
D(-------------------------------------)
A(-------------------------------------)
E(-------------------------------------)

Guitar2 (2nd and 3rd time only)
e(-----------------------------------------------------------------------|
B(---12=-10-12-13-/15-13-12=-/10-12-13-/15-13-12-/10=-12-10-12-13-12-10=-|
G(-----------------------------------------------------------------------|
D(-----------------------------------------------------------------------|
A(-----------------------------------------------------------------------|
E(-----------------------------------------------------------------------|

e(---191715--------------------------------------------------------------|
B(----------191715-----------12=-10-12-13-/15-13-12=-/10-12-13-/15-13-12-|
G(-----------------171614=-----------------------------------------------|
D(-----------------------------------------------------------------------|
A(-----------------------------------------------------------------------|
E(-----------------------------------------------------------------------|

e(---10=-12-10-12-13-12-10-------------)
B(-------------------------13=---10=---)
G(-------------------------------------)
D(-------------------------------------)
A(-------------------------------------)
E(-------------------------------------)


Guitar Solo 2
Riff 6 (2x)

e(-----------------------------------------------------------|
B(-----------------------------------------------------------|
G(-------------------------------5=-5-5--5-5-5-5=-5-5--5-5-5-|
D(---2=-2-2--2-2-2-2=-2-2--2-2-2-5=-5-5--5-5-5-5=-5-5--5-5-5-|
A(---2=-2-2--2-2-2-2=-2-2--2-2-2-3=-3-3--3-3-3-3=-3-3--3-3-3-|
E(---0=-0-0--0-0-0-0=-0-0--0-0-0-----------------------------|

e(----------------------------------------------)
B(----------------------------------------------)
G(-------------------------------5=---7=---9=---)
D(---2=-2-2--2-2-2-2=-2-2--2-2-2-5=---7=---9=---)
A(---2=-2-2--2-2-2-2=-2-2--2-2-2-3=---5=---7=---)
E(---0=-0-0--0-0-0-0=-0-0--0-0-0----0----0------)
P.M.                                .    .


Interlude 2 - Riff 5 (2x; Guitars 1 and 2)
Chorus 3    - Riff 2 (2x)


Coda
Riff 2 variation (2x)

e(----------------------------------------------|
B(----------------------------------------------|
G(----------------------------------------------|
D(----------9=-------7=-------5=---9-7-5--9-7-5-|
A(---------10=-------9=-------7=--10-9-7-10-9-7-|
E(---0-0-0-----0-0-0----0-0-0-------------------|
P.M. . . .     . . .    . . .      . . .  . . .

                            1st ending    2nd ending
e(-----------------------(--------------)-------------)
B(-----------------------(--------------)-------------)
G(-----------------------(--------------)-------------)
D(----------9=-------7=--(---2=-4=-5=---)---2=-4=-5---)
A(---------10=-------9=--(---3=-5=-7=---)---3=-5=-7---)
E(---0-0-0-----0-0-0-----(--------------)-------------)
P.M. . . .     . . .


Symbol explanation:


P.M.  Palm Mute (notes marked with dot)
/     slide
=     sustained


Note: If you find any mistakes please send e-mail
Tap to rate this tab
 
# A B C D E F G H I J K L M N O P Q R S T U V W X Y Z