Song name
# A B C D E F G H I J K L M N O P Q R S T U V W X Y Z

Steel Attack - The Creation Of Be-lou tab

Artist: Steel Attack
Title:  The Creation Of Be-Lou (The Tragic Kingdom - part I)
Album:  Where Mankind Fails
Transcribed by Roger H. Beck (July 29, 2001)
e-mail address: roger_h_beck@hotmail.com

Standard tuning


Intro
Riff 1 (2x)

e(-------5-7-----5--8-----5-7--------------5-7-----5--8-----7-5-------------)
B(-----5-------5--------5-------5-7--8---5-------5--------5------8-7-5-/3---)
G(--------------------------------------------------------------------------)
D(-------7-9-----7-10-----7-9--------------7-9-----7-10-----9-7-------------)
A(-----7-------7--------7-------7-9-10---7-------7--------7-----10-9-7-/5---)
E(---0-------0--------0-------0--------0-------0--------0-------------------)
P.M. . .     . .      . .     . .      . .     . .      . .


Pre-Chorus 1
Riff 2 (2x)

e(-------------------------------------------------------------)
B(-------------------------------------------------------------)
G(--------5=---/4=------------------------5=---/4=---/5=-/7=---)
D(---2=---5=---/4=-------------------2=---5=---/4=---/5=-/7=---)
A(---2=---3=---/2=---3-2---3---------2=---3=---/2=---/3=-/5=---)
E(---0=------------------5---5-3-2-3-0=------------------------)


Theme 1
Main Riff a (2x)

e(--------------------------------------12--------------------------------)
B(---121212=-8-10-7-8-10---121212=-8-10----12=---121212=-8-10-7-8-10------)
G(-9---------------------9---------------------9---------------------7=---)
D(------------------------------------------------------------------------)
A(------------------------------------------------------------------------)
E(------------------------------------------------------------------------)


Theme 2
Main Riff b (2x)

e(------------------------------------------------|
B(---8=-----8-10-12-/13-10=-----8-10-12-/13-12=---|
G(---9=---7-9-11-12-/14-11=---7-9-11-12-/14-12=---|
D(--------9-------------------9-------------------|
A(------------------------------------------------|
E(------------------------------------------------|

e(--------------------------------------------)
B(---121212-10-8-/7=---777-8-10-/12-8=---7=---)
G(---121212-11-9-/7=---777-9-11-/12-9=---7=---)
D(--------------------------------------------)
A(--------------------------------------------)
E(--------------------------------------------)


Verse 1
Riff 3 (2x)

e(------------------------------------------------------------------|
B(------------------------------------------------------------------|
G(--------------------0000-2222-4444--5555-5=---4444-2222-0000------|
D(--------------------2222-4444-5555-/7777-5=---5555-4444-2222-4=---|
A(-----------------------------------------3=------------------5=---|
E(---0-000-000-000-00-----------------------------------------------|
P.M. . ... ... ... .. .... .... ....  ....      .... .... ....

                                                  1st ending       2nd end.
e(----------------------------------------------(----------------)---------)
B(----------------------------------------------(----------------)---------)
G(--------------------0000-2222-4444--5555-5=---(----------------)---/4=---)
D(--------------------2222-4444-5555-/7777-5=---(----------------)---/4=---)
A(-----------------------------------------3=---(-2--------------)---/2=---)
E(---0-000-000-000-00---------------------------(---5-3-2-0-2-3=-)---------)
P.M. . ... ... ... .. .... .... ....  ....          . . . . .


Bridge 1
Riff 4 (4x)

e(------------------------------------------------------------------)
B(------------------------------------------------------------------)
G(-------------------------------------------------------7=---/4=---)
D(---------4-5-----7-9-----4-5---5-7-------4-5-----7-9---7=---/4=---)
A(-------------------------------------------------------5=---/2=---)
E(---0-0-0-----0-0-----0-0-----0-----0-0-0-----0-0-----0------------)
P.M. . . .     . .     . .     .     . . .     . .     .

Guitar 2 (3rd and 4th time only)
e(------------------------------------------------------------------)
B(------------------------------------------------------------------)
G(---------2-4-----5-7-----2-4---4-5-------2-4-----5-7---7=---/4=---)
D(-------------------------------------------------------7=---/4=---)
A(-------------------------------------------------------5=---/2=---)
E(---0-0-0-----0-0-----0-0-----0-----0-0-0-----0-0-----0------------)
P.M. . . .     . .     . .     .     . . .     . .     .


Pre-Chorus 2 - Riff 2 (2x)


Chorus 1
Riff 5 (2x)

e(----------------------------------------------------------|
B(----------------------------------------------------------|
G(---9--------9--------9--------9---------7--------7--------|
D(---9--------9--------9--------9---------7--------7--------|
A(---7-777777-7-777777-7-777777-7-777777-/5-555555-5-555555-|
E(----------------------------------------------------------|
P.M.   ......   ......   ......   ......    ......   ......

e(---------------------------------------------------------|
B(---------------------------------------------------------|
G(---7--------7--------2--------2--------2--------2--------|
D(---7--------7--------2--------2--------2--------2--------|
A(---5-555555-5-555555-0-000000-0-000000-0-000000-0-000000-|
E(---------------------------------------------------------|
P.M.   ......   ......   ......   ......   ......   ......

e(----------------------------------------)
B(----------------------------------------)
G(---5-----------------7------------------)
D(---5-----------------7------------------)
A(---3-33333333333333-/5-55555555555555---)
E(----------------------------------------)
P.M.   ..............    ..............


Theme 3 - Main Riff b (2x)


Riff 6

e(---------------------)
B(---------------------)
G(-----5-2-4---5-2-4---)
D(---2-5-2-4-2-5-2-4---)
A(---2-3-0-2-2-3-0-2---)
E(---0-------0---------)


Guitar Solo
Riff 7 (4x)
                                  1st/3rd    2nd/4th end.
e(------------------------------(-----------)-----------)
B(------------------------------(-----------)-----------)
G(------------------------------(-----------)-----------)
D(------------------------------(-----------)-----------)
A(------------------------------(-----------)------3=---)
E(---22222222-22222222-22222222-(-2222-3=---)-2222------)
P.M. ........ ........ ........   ....        ....


Riff 8

e(-----------------------------------------------)
B(-----------------------------------------------)
G(---9=--------7=--------5=--------4=-4=-4=-4=---)
D(---9=---7=---7=---5=---5=---3=---4=-4=-4=-4=---)
A(---7=---7=---5=---5=---3=---3=---2=-2=-2=-2=---)
E(--------5=--------3=--------1=-----------------)


Riff 8 variation

e(------------------------------------------------------|
B(------------------------------------------------------|
G(---9---------------------------------7----------------|
D(---9----------------7----------------7----------------|
A(---7-77777777777777-7----------------5-55555555555555-|
E(--------------------5-55555555555555------------------|
P.M.   ..............   ..............   ..............

e(------------------------------------------------------|
B(------------------------------------------------------|
G(--------------------5---------------------------------|
D(---5----------------5----------------3----------------|
A(---5----------------3-33333333333333-3----------------|
E(---3-33333333333333------------------1-11111111111111-|
P.M.   ..............   ..............   ..............

e(-----------------------------------------)
B(-----------------------------------------)
G(---4--------4--------4--------4----------)
D(---4--------4--------4--------4----------)
A(---2-222222-2-222222-2-222222-2-222222---)
E(-----------------------------------------)
P.M.   ......   ......   ......   ......


Theme 4
Main Riff c (2x)

e(------------------------------------------------------------)
B(------------------------------------------------------------)
G(---9=---11-12-11=---11-12-11-14=---17-16-12-16-14-12-/11=---)
D(------------------------------------------------------------)
A(------------------------------------------------------------)
E(------------------------------------------------------------)

Guitar 2 (2nd time only)
e(------------------------------------------------------------)
B(---8=---10-12-10=---10-12-10-13=---17-15-12-15-13-12-/10=---)
G(------------------------------------------------------------)
D(------------------------------------------------------------)
A(------------------------------------------------------------)
E(------------------------------------------------------------)


Theme 5  - Main Riff a (2x)
Verse 2  - Riff 3      (2x)
Bridge 2 - Riff 4      (4x; Guitar 2 3rd and 4th time only)


Bridge 3
Riff 9 (4x)

e(-------------------------------------)
B(-------------------------------------)
G(-------------------------------------)
D(-------------------------------------)
A(---7-------7-------7-------7---------)
E(-----0-0-0---0-0-0---0-0-0---0-0-0---)
P.M. . . . . . . . . . . . . . . . .


Riff 10 (2x)

e(----------------------------------------------------------------------|
B(----------------------------------------------------------------------|
G(----------------------------------------------------------------------|
D(----------------------------------------------------------------------|
A(---7-------7-------9-------9-------10-------10-------12-------9-------|
E(-----0-0-0---0-0-0---0-0-0---0-0-0----0-0-0----0-0-0----0-0-0---0-0-0-|
P.M. . . . . . . . . . . . . . . . .  . . . .  . . . .  . . . . . . . .

e(---------------------------------------------------------------------)
B(---------------------------------------------------------------------)
G(---------------------------------------------------------------------)
D(---------------------------------------------------------------------)
A(---7-------7-------9-------9-------5-------5-------7-------7---------)
E(-----0-0-0---0-0-0---0-0-0---0-0-0---0-0-0---0-0-0---0-0-0---0-0-0---)
P.M. . . . . . . . . . . . . . . . . . . . . . . . . . . . . . . . .


Riff 10 variation a (no p.m. on A string!)

e(----------------------------------------------------------------------|
B(----------------------------------------------------------------------|
G(----------------------------------------------------------------------|
D(----------------------------------------------------------------------|
A(---7-------7-------9-------9-------10-------10-------12-------9-------|
E(-----0-0-0---0-0-0---0-0-0---0-0-0----0-0-0----0-0-0----0-0-0---0-0-0-|
P.M.   . . .   . . .   . . .   . . .    . . .    . . .    . . .   . . .

e(---------------------------------------------------------------------)
B(---------------------------------------------------------------------)
G(---------------------------------------------------------------------)
D(---------------------------------------------------------------------)
A(---7-------7-------9-------9-------5-------5-------7-------7---------)
E(-----0-0-0---0-0-0---0-0-0---0-0-0---0-0-0---0-0-0---0-0-0---0-0-0---)
P.M.   . . .   . . .   . . .   . . .   . . .   . . .   . . .   . . .


Riff 10 variation b (2x; no p.m. on A string!)

e(------------------------------------------------------------------------)
B(------------------------------------------------------------------------)
G(------------------------------------------------------------------------)
D(------------------------------------------------------------------------)
A(---7-------7-------9-------9-------10-------10-------12-------9---------)
E(-----0-0-0---0-0-0---0-0-0---0-0-0----0-0-0----0-0-0----0-0-0---0-0-0---)
P.M.   . . .   . . .   . . .   . . .    . . .    . . .    . . .   . . .


e(--------)
B(--------)
G(---7=---)
D(---7=---)
A(---5=---)
E(--------)


Chorus 2 - Riff 5      (2x)
Theme 6  - Main Riff c (2x; Guitar 2 2nd time only)


e(----------)
B(----------)
G(---9===---)
D(---2===---)
A(---2===---)
E(---0===---)


Symbol explanation:


P.M.  Palm Mute (notes marked with dot)
/     slide
=     sustained


Note: If you find any mistakes please send e-mail
Tap to rate this tab
 
# A B C D E F G H I J K L M N O P Q R S T U V W X Y Z