Song name
# A B C D E F G H I J K L M N O P Q R S T U V W X Y Z

Steel Attack - The Awakening tab

Artist: Steel Attack
Title:  The Awakening (The Tragic Kingdom - part II)
Album:  Where Mankind Fails
Transcribed by Roger H. Beck (July 29, 2001)
e-mail address: roger_h_beck@hotmail.com

Standard tuning


Intro
Main Riff variation

e(-------------------------------------------------------------------------------)
B(-------------------------------------------------------------------------------)
G(-----------------------------------------------------------------------5-5-5---)
D(---7-0000-0-0000-3-0000-2-0000----------22-7-0000-0-0000-3-0000-2-0000-5-5-5---)
A(-------------------------------11-33-55--------------------------------3-3-3---)
E(-------------------------------------------------------------------------------)
P.M.   ....   ....   ....   .... .. .. .. ..   ....   ....   ....   ....


Theme 1
Main Riff (2x)

e(-----------------------------------------------------------------------------------|
B(-----------------------------------------------------------------------------------|
G(-----------------------------------------------------------------------------------|
D(---7-0000-0-0000-3-0000-2-0000----------22-7-0000-0-0000-3-0000-2-0000-33-22-------|
A(-------------------------------11-33-55--------------------------------------55-33-|
E(-----------------------------------------------------------------------------------|
P.M.   ....   ....   ....   .... .. .. .. ..   ....   ....   ....   .... ..
... .. ..

e(---------------------------------------------------------------------)
B(---------------------------------------------------------------------)
G(-------------------------------------------3=-2=-5=-5555-3333-2222---)
D(---7-0000-0-0000-3-0000-2-0000----------22-3=-2=-5=-7777-5555-3333---)
A(-------------------------------11-33-55----1=-0=-3=------------------)
E(---------------------------------------------------------------------)
P.M.   ....   ....   ....   .... .. .. .. ..          .... .... ....


Verse 1
Riff 1 (2x)

e(-----------------------------------------------------------------------|
B(-----------------------------------------------------------------------|
G(------------------------------7=-/5=-----------------------------------|
D(------------------------------7=-/5=-----------------------------7=-5=-|
A(---55555555-55555555-55555555-5=-/3=-/55555555-55555555-55555555-8=-7=-|
E(-----------------------------------------------------------------------|
P.M. ........ ........ ........         ........ ........ ........

e(---------------------------------------------------------------)
B(---------------------------------------------------------------)
G(---------------------------------------------------------------)
D(---3=---5=---77777777-77777777-1010--8-8-77-1010--8-8-77-/5=---)
A(---5=---7=---88888888-88888888-1212-1010-88-1212-1010-88-/7=---)
E(---------------------------------------------------------------)
P.M.           ........ ........  . .  . . ..  . .  . . ..


Chorus 1
Riff 2 (2x)

e(----------------------------------------------|
B(----------------------------------------------|
G(----------------------------------------------|
D(---33333333-5555-7777-33333333-7777--/8-8-8-8-|
A(---55555555-7777-8888-55555555-8888-/10101010-|
E(----------------------------------------------|
P.M. ........ .... .... ........ ....   . . . .

e(----------------------------------------------------)
B(----------------------------------------------------)
G(----------------------------------------------------)
D(---55555555--8-8-8-8-/10101010-77777777-/55555555---)
A(---77777777-10101010-/12121212-88888888-/77777777---)
E(----------------------------------------------------)
P.M. ........  . . . .   . . . . ........  ........


Riff 3

e(------------------------------------------------------------)
B(------------------------------------------------------------)
G(---3=---/5=--------5=---/3=---/5=---/3-----------------5=---)
D(---3=---/5=---3=---5=---/3=---/5=---/3-----------------5=---)
A(---1=---/3=---3=---3=---/1=---/3=---/1-11111111111111-/3=---)
E(--------------1=--------------------------------------------)
P.M.                                     ..............


Theme 2  - Main Riff (2x)
Verse 2  - Riff 1    (2x)
Chorus 2 - Riff 2    (2x)
           Riff 3


e(-------------)
B(-------------)
G(---7=---7=---)
D(---7=---7=---)
A(---5=---5=---)
E(-------------)


Bridge 1
Riff 4a

e(--------------------------------------------------------)
B(--------------------------------------------------------)
G(--------------------------------------------------------)
D(---3=---0-2-3-2-3-2=-3=---3=-2-3-5-/7-5-3-/2=--0-2-3=---)
A(---5=-3-1-3-5-3-5-3=-5=---5=-3-5-7-/8-7-5-/3=-/1-3-5=---)
E(------5-------------------------------------------------)


Riff 4b

e(----------------------------------------------------------)
B(----------------------------------------------------------)
G(----------------------------------------------------------)
D(---3=-2-3-5-/7-5-3-/2=-3=---3=-2-3-5-/7-5-3-/2=--0-2-3=---)
A(---5=-3-5-7-/8-7-5-/3=-5=---5=-3-5-7-/8-7-5-/3=-/1-3-5=---)
E(----------------------------------------------------------)


Riff 4c

e(------------------------------------------------------------------------)
B(------------------------------------------------------------------------)
G(---3=---/5=---/3=---/5=--------------------------3=---/5=---/3=---/5=---)
D(---3=---/5=---/3=---/5=---3=-2-3-5-/7-5-3-/2=-3=-3=---/5=---/3=---/5=---)
A(---1=---/3=---/1=---/3=---5=-3-5-7-/8-7-5-/3=-5=-1=---/3=---/1=---/3=---)
E(------------------------------------------------------------------------)


Riff 4b (2x)
Riff 4c


Bridge 2
Riff 5 (4x)                          Riff 5 addition

e(---------------------------)     e(---------------)
B(---------------------------)     B(---------------)
G(---9---9---9---9---5-5-5---)     G(---/3=---/5=---)
D(-----7---7---7---7-5-5-5---)     D(---/3=---/5=---)
A(-------------------3-3-3---)     A(---/1=---/3=---)
E(---------------------------)     E(---------------)
P.M.   .   .   .   .


Riff 5 (4x)


Interlude
Riff 6 (2x)

e(-------------------------------------8---10---11---10---|
B(---8=--------9=---------11=------------8----8----8----8-|
G(------8-7-5=----10-8-7=-----12-10-8=--------------------|
D(--------------------------------------------------------|
A(--------------------------------------------------------|
E(--------------------------------------------------------|

     1st ending                        2nd ending
e(---11-10-8-----------------------)---8--------------------)-------|
B(-----------11-9-8----------------)-----11-9-8-------------)-------|
G(------------------10-8-7-8-7-5---)------------10-8-10-8---)-12=---|
D(---------------------------------)------------------------)-------|
A(---------------------------------)------------------------)-------|
E(---------------------------------)------------------------)-------|


Guitar Solo
Riff 7a (2x)                                      Riff 7b (2x)

e(-------------------------------------)     e(------------------------)
B(-------------------------------------)     B(------------------------)
G(---5=--------3=---/5=---5-/8-8-/10---)     G(---5=--------3=---/5=---)
D(---5=---6=---3=---/5=---5-/8-8-/10---)     D(---5=---6=---3=---/5=---)
A(---3=---6=---1=---/3=---3-/6-6--/8---)     A(---3=---6=---1=---/3=---)
E(--------4=---------------------------)     E(--------4=--------------)


e(----------)
B(----------)
G(---5===---)
D(---5===---)
A(---3===---)
E(----------)

Symbol explanation:


P.M.  Palm Mute (notes marked with dot)
/     slide
=     sustained


Note: If you find any mistakes please send e-mail
Tap to rate this tab
 
# A B C D E F G H I J K L M N O P Q R S T U V W X Y Z