Song name
# A B C D E F G H I J K L M N O P Q R S T U V W X Y Z

Steel Attack - Island Of Gods tab

Artist: Steel Attack
Title:  Island Of Gods
Album:  Where Mankind Fails
Transcribed by Roger H. Beck (July 25, 2001)
e-mail address: roger_h_beck@hotmail.com

Standard tuning


Theme 1
Main Riff (2x)

e(-------------------------------------------------------)
B(-------------------------------------------------------)
G(----------------------12-/11--------------------9-/7---)
D(----------------------12-/11--------------------9-/7---)
A(-------------5-7=-----10--/9---------5-7=-------7-/5---)
E(---3-5-7-5-7------0-0--------0-3-5-7------0-0-0--------)
P.M. . . . . . .    . .        . . . . .    . . .


Guitar Solo 1 - Main Riff (4x)


Verse 1
Riff 1

e(--------------------------------------------------------)
B(--------------------------------------------------------)
G(----------------------5=---/7=--------7-7-7-7-7-7-7-7---)
D(---------------2===---5=---/7=---2=---7-7-7-7-7-7-7-7---)
A(-------------5-2===---3=---/5=---2=---5-5-5-5-5-5-5-5---)
E(---3-5-7-5-7---0===--------------0=---------------------)
P.M. . . . . . .                        . . . . . . . .


Pre-Chorus 1
Riff 2 (2x)

e(-------------------------------------------------------------|
B(-------------------------------------------------------------|
G(---9-----12-/11-------11-----14-/12-------9-----12-/11-------|
D(---9-----12-/11-------11-----14-/12-------9-----12-/11-------|
A(---7-----10--/9--------9-----12-/10-------7-----10--/9-------|
E(-----0-0--------0-0-0----0-0--------0-0-0---0-0--------0-0-0-|
P.M.   . .        . . .    . .        . . .   . .        . . .

e(-----------------------------------------------)
B(-----------------------------------------------)
G(---11-----14-/12-------5=---------5=-----------)
D(---11-----14-/12-------5=---5=-4=-5=---5=-4=---)
A(----9-----12-/10-------3=---------3=-----------)
E(------0-0--------0-0-0-------------------------)
P.M.    . .        . . .


Guitar Solo 2 - Main Riff (4x)
Verse 2       - Riff 1 with alt. ending

     alt. ending
e(--------------------)
B(--------------------)
G(---7-7-7-7-7-7-/x---)
D(---7-7-7-7-7-7-/x---)
A(---5-5-5-5-5-5-/x---)
E(--------------------)
P.M. . . . . . .


Pre-Chorus 2 - Riff 2


Chorus 1
Riff 3

e(--------------------------------------------------)
B(--------------------------------------------------)
G(---9=---/7=---/5=---/7=---/9=---/7=---/5=---/7=---)
D(---9=---/7=---/5=---/7=---/9=---/7=---/5=---/7=---)
A(---7=---/5=---/3=---/5=---/7=---/5=---/3=---/5=---)
E(--------------------------------------------------)


Bridge 1
Riff 4a (2x)

e(--------------------------------------------------------------------------)
B(--------------------------------------------------------------------------)
G(---9=-------------------------7-/9=-------------------5=-------7=---------)
D(---9=-------------------------7-/9=-------------------5=-------7=---------)
A(---7=-------------------------5-/7=-------------------3=-------5=---------)
E(------0-0-0-0-0-0-0-0-0-0-0-0-------0-0-0-0-0-0-7-5-3----7-5-3----7-5-3---)
P.M.    . . . . . . . . . . . .       . . . . . . . . .    . . .    . . .


Riff 4b (2x)

e(--------------------------------------------------------------------------)
B(--------------------------------------------------------------------------)
G(--------------------------------------------------------------------------)
D(---5=-------------------------4-/5=-------------------2=-------4=---------)
A(---7=-------------------------5-/7=-------------------3=-------5=---------)
E(------0-0-0-0-0-0-0-0-0-0-0-0-------0-0-0-0-0-0-7-5-3----7-5-3----7-5-3---)
P.M.    . . . . . . . . . . . .       . . . . . . . . .    . . .    . . .


Interlude 1
Riff 5

e(-------------------------------------------------------------------|
B(-------------------------------------------------------------------|
G(-------------------------------------------------------------------|
D(---5-------5-------5-------5-------4-------4-------4-------4-------|
A(-----7-7-7---7-7-7---7-7-7---7-7-7---5-5-5---5-5-5---5-5-5---5-5-5-|
E(-------------------------------------------------------------------|
P.M.   . . .   . . .   . . .   . . .   . . .   . . .   . . .   . . .

e(-----------------------------------------------)
B(-----------------------------------------------)
G(-----------------------------------------------)
D(---2-------2-------2-------2-------------------)
A(-----3-3-3---3-3-3---3-3-3---3-3-3-------------)
E(-----------------------------------3=---3-2=---)
P.M.   . . .   . . .   . . .   . . .

Guitar 2
e(---------------------------------------------------------------|
B(---------------------------------------------------------------|
G(---------------------------------------------------------------|
D(---9----------9----------9----------9----------7-------7-------|
A(-----10-10-10---10-10-10---10-10-10---10-10-10---9-9-9---9-9-9-|
E(---------------------------------------------------------------|
P.M.    .  .  .    .  .  .    .  .  .    .  .  .   . . .   . . .

e(---------------------------------------------------------------)
B(---------------------------------------------------------------)
G(---------------------------------------------------------------)
D(---7-------7-------5-------5-------5-------5-------------------)
A(-----9-9-9---9-9-9---7-7-7---7-7-7---7-7-7---7-7-7-------------)
E(---------------------------------------------------7=---7-6=---)
P.M.   . . .   . . .   . . .   . . .   . . .   . . .


Riff 4b (2x)


Riff 4b addition

e(------------)
B(------------)
G(------------)
D(---5=---5---)
A(---7=---7---)
E(------------)


Pre-Chorus 3 - Riff 2 (2x)
Chorus 2     - Riff 3


Chorus 3
Riff 6 (2x)

e(-------------------------------------------------------------------|
B(-------------------------------------------------------------------|
G(-------------------------------------------------------------------|
D(---5-5-5-5-5-5-5-5-5-5-5-5-5-5-5-5-4-4-4-4-4-4-4-4-4-4-4-4-4-4-4-4-|
A(---7-7-7-7-7-7-7-7-7-7-7-7-7-7-7-7-5-5-5-5-5-5-5-5-5-5-5-5-5-5-5-5-|
E(-------------------------------------------------------------------|
P.M. . . . . . . . . . . . . . . . . . . . . . . . . . . . . . . . .

e(---------------------------------------------------------------------)
B(---------------------------------------------------------------------)
G(---------------------------------------------------------------------)
D(---2-2-2-2-2-2-2-2-2-2-2-2-2-2-2-2-4-4-4-4-4-4-4-4-4-4-4-4-4-4-4-4---)
A(---3-3-3-3-3-3-3-3-3-3-3-3-3-3-3-3-5-5-5-5-5-5-5-5-5-5-5-5-5-5-5-5---)
E(---------------------------------------------------------------------)
P.M. . . . . . . . . . . . . . . . . . . . . . . . . . . . . . . . .


Keyboard Solo
Riff 7 (2x)

e(---------------------------------------)
B(---------------------------------------)
G(---9---4---9---5---7---7-/8-/9=---4=---)
D(---9---4---9---5---7---7-/8-/9=---4=---)
A(---7---2---7---3---5---5-/6-/7=---2=---)
E(---------------------------------------)


Guitar Solo 3
Riff 8 (2x)

e(-------------------------------------------------|
B(-------------------------------------------------|
G(-------------------------------------------------|
D(---------------4=----------5-4-2-----------------|
A(---------------------------------5-4-2-/1-2-4----|
E(---2=-3-2-0-2=----2=-3-2-0--------------------3=-|

e(--------------------------------------)
B(--------------------------------------)
G(--------------------------------------)
D(---------------4=-5-4-2---------------)
A(------------------------5-4-2-/1===---)
E(---2=-3-2-0-2=------------------------)


Coda
Riff 9 (4x)

e(-----------------------------------------------------|
B(-6-3-5-6-5-3--6-3-5-6-5-3--8-5-6-8-6-5--8-5-6-8-6-5--|
G(-----------------------------------------------------|
D(-----------------------------------------------------|
A(-----------------------------------------------------|
E(-----------------------------------------------------|

                                                 1st/2nd/3rd 4th ending
e(----------------------------------------------(-----------)----------)
B(-10-6-8-10-8-6--10-6-8-10-8-6--11-10-8--------(-----------)----------)
G(---------------------------------------10-9-7-(--9=--5=---)-/5=--7---)
D(----------------------------------------------(-----------)----------)
A(----------------------------------------------(-----------)----------)
E(----------------------------------------------(-----------)----------)

Guitar 2 (3rd and 4th time only)
e(-----------------------------------------------------------------|
B(-10-6-8-10-8-6--10-6-8-10-8-6--11-8-10-11-10-8--11-8-10-11-10-8--|
G(-----------------------------------------------------------------|
D(-----------------------------------------------------------------|
A(-----------------------------------------------------------------|
E(-----------------------------------------------------------------|

                                                            1st ending
e(---------------------------------------------------------(-----------)
B(-13-10-11-13-11-10--13-10-11-13-11-10--15-13-11----------(-----------)
G(------------------------------------------------14-12-10-(--12=--9=--)
D(---------------------------------------------------------(-----------)
A(---------------------------------------------------------(-----------)
E(---------------------------------------------------------(-----------)

  2nd ending
e(-----------)
B(-----------)
G(-/9=--10---)
D(-----------)
A(-----------)
E(-----------)


Symbol explanation:


P.M.  Palm Mute (notes marked with dot)
/     slide
=     sustained


Note: If you find any mistakes please send e-mail
Tap to rate this tab
 
# A B C D E F G H I J K L M N O P Q R S T U V W X Y Z