Song name
# A B C D E F G H I J K L M N O P Q R S T U V W X Y Z

Steel Attack - Forgotten Land tab

Artist: Steel Attack
Title:  Forgotten Land
Album:  Where Mankind Fails
Transcribed by Roger H. Beck (July 30, 2001)
e-mail address: roger_h_beck@hotmail.com

Standard tuning


Intro
Riff 1 (* Lead guitar during intro only)

e(---------------------------------------------|
B(---------------------------------------------|
G(---4*========================================
D(---9=---/5=---/9=----------------------------|
A(---9=---/5=---/9=----------------------------|
E(---7=---/3=---/7=---5555-7777-9999-/10101010-|
P.M.                  .... .... ....   . . . .

e(-----------------------------------------------)
B(-----------------------------------------------)
G(---=========================================---)
D(---9=---/5=---/9=------------------------------)
A(---9=---/5=---/9=---4444-5555-7777--/9-9-9-9---)
E(---7=---/3=---/7=---5555-7777-9999-/10101010---)
P.M.                  .... .... ....   . . . .


Theme 1
Main Riff a (2x)

e(-------------------------------------------------------------|
B(--------------------------------77777777---------------------|
G(---44444444-4444-66-77-44444444----------44444444-4444-66-77-|
D(-------------------------------------------------------------|
A(-------------------------------------------------------------|
E(-------------------------------------------------------------|
P.M. ........ .... .. .. ........ ........ ........ .... .. ..

e(-----------------------------)
B(---10101010-8888-7777--------)
G(----------------------9999---)
D(-----------------------------)
A(-----------------------------)
E(-----------------------------)
P.M.  . . . . .... .... ....


Theme 2
Main Riff b (2x)

e(-----------------------------------------------------------------|
B(-----------------------------------------------------------------|
G(-----------------------------------------------------------------|
D(-----------------------------------------------------------------|
A(---5=-222222-55-44-22-00-5=-22222222-55-44-22-00-5=--7--9--7--5--|
E(-----------------------------------------------------------------|
P.M.    ...... .. .. .. ..    ........ .. .. .. ..

     1st ending                2nd ending
e(-------------------------)-------------------------)
B(-------------------------)-------------------------)
G(-------------------------)-------------------------)
D(-------------------------)-------------------------)
A(---0000000000-55-44-00---)---0000000000-55-44-22---)
E(-------------------------)-------------------------)
P.M. .......... .. .. ..       .......... .. .. ..


Theme 3
Main Riff c (2x)

e(--------------------------------------------------------------|
B(--------------------------------------------------------------|
G(--------------------------------------------------------------|
D(--------------------------------------------------------------|
A(---0=-22222222222222-55-44-0000-77-55-44-00-0=-22222222222222-|
E(--------------------------------------------------------------|
P.M.    .............. .. .. .... .. .. .. ..    ..............

     1st ending             2nd ending
e(----------------------)----------------------)
B(----------------------)----------------------)
G(----------------------)----------------------)
D(--------5=--------7---)--------5=-------7=---)
A(--------5=-9-5-/4-----)--------5=-------7=---)
E(---3333-3=------------)---3333-3=-/5555-5=---)
P.M. ....                   ....     ....


Verse 1 - Riff 1


Riff 2 (2x)
                                              1st end.   2nd ending
e(-------------------------------------------(---------)------------------)
B(-------------------------------------------(---------)------------------)
G(-------------------------------------------(---------)------------------)
D(---------------------7=--------------------(--5=-/7=-)------5=-------7=-)
A(---------------------7=--------------------(--5=-/7=-)------5=-------7=-)
E(---7777777777777777-/5=---7777777777777777-(-/3=-/5=-)-3333-3=-/5555-5=-)
P.M. ................       ................             ....     ....


Pre-Chorus 1
Riff 3 (2x)

e(-----------------------------------------------------------------)
B(-----------------------------------------------------------------)
G(-----------------------------------------------------------------)
D(---9=---/7=-/5=---/7=--------------------------------------------)
A(---9=---/7=-/5=---/7=----9-7-5=---5555-7777--9-9-9-9-/10101010---)
E(---7=---/5=-/3=---/5=---10-9-7=---7777-9999-10101010-/12121212---)
P.M.                                .... ....  . . . .   . . . .


Chorus 1
Riff 4

e(--------------------------------------------------------------------|
B(--------------------------------------------------------------------|
G(--------------------------------------------------------------------|
D(---5=---/7=---0000-2222-4444-/5555-5=---/7=---4444-5555-4444-2222---|
A(---5=---/7=---2222-4444-5555-/7777-5=---/7=---5555-7777-5555-4444---|
E(---3=---/5=------------------------3=---/5=-------------------------|
P.M.            .... .... ....  ....            .... .... .... ....

e(----------------------------------------------)
B(----------------------------------------------)
G(----------------------------------------------)
D(---5=---/7=---0000-2222-4444-/5555-5=---/7=---)
A(---5=---/7=---2222-4444-5555-/7777-5=---/7=---)
E(---3=---/5=------------------------3=---/5=---)
P.M.            .... .... ....  ....


Theme 4      - Main Riff b (2x)
Theme 5      - Main Riff c (2x)
Verse 2      - Riff 1
               Riff 2      (2x)
Pre-Chorus 2 - Riff 3      (2x)
Chorus 2     - Riff 4


Guitar Solo 1
Riff 5 (2x)
                                                 1st ending
e(---------------------------------------------(-----------------|
B(---------------------------------------------(-----------------|
G(---------------------------------------------(-----------------|
D(---5=------4=------7545=-------4=------5=----(-5=------4=------|
A(------2222----2222-------22222----2222----22-(----3333----3333-|
E(---------------------------------------------(-----------------|
P.M.    ....    ....       .....    ....    ..      ....    ....

                                   2nd ending
e(-----------------------------)--------------------------------------------)
B(-----------------------------)--------------------------------------------)
G(---------------------4=-4=---)------------------------------------4=-4=---)
D(---5=------7=--------4=-4=---)---5=------4=------5=------4=-------4=-4=---)
A(------3333----33333-/2=-2=---)------3333----3333----3333----3333-/2=-2=---)
E(-----------------------------)--------------------------------------------)
P.M.    ....    .....                 ....    ....    ....    ....


Riff 6 (2x)

e(-------------------------------------------------------------------------)
B(-------------------------------------------------------------------------)
G(-------------------------------------------------------------------------)
D(-------------------------------------------------------------------------)
A(--------------------5555555555555555------------------3333333333333333---)
E(---3333333333333333------------------1111111111111111--------------------)
P.M. ................ ................ ................ ................


Interlude 1
Riff 7

e(-----------------------------------------------------|
B(-----5-7-8---5-7-8---7-8-10---5-7-8---5-7-8---7-8-10-|
G(---4-------5-------7--------4-------5-------7--------|
D(-----------------------------------------------------|
A(-----------------------------------------------------|
E(-----------------------------------------------------|

e(------------------------------------)
B(---/12-10-8-------------------------)
G(------------11-9-7------------------)
D(-------------------10-9-7-----------)
A(--------------------------10-9-7=---)
E(------------------------------------)


Guitar Solo 2 - Riff 5 (2x)


Interlude 2
Riff 7 variation

e(------------------------------)
B(-----5-7-8---5-7-8---7-8-10---)
G(---4-------5-------7----------)
D(------------------------------)
A(------------------------------)
E(------------------------------)
P.M. . . . . . . . . . . .  .


Guitar Solo 3
Riff 8a (2x)

e(-----------------------------------------------|
B(-----------------------------------------------|
G(-----------------------------------------------|
D(-----------------------------------------------|
A(---7777777777-99-1010-99--5555555555-77-99-77--|
E(-----------------------------------------------|
P.M. .......... ..  . . ..  .......... .. .. ..

e(-------------------------------------------)
B(-------------------------------------------)
G(-------------------------------------------)
D(-------------------------------------------)
A(---3333333333-55-77-55--2222222222222222---)
E(-------------------------------------------)
P.M. .......... .. .. ..  ................


Riff 8b (2x)

e(------------------------------------------------------|
B(------------------------------------------------------|
G(------------------------------------------------------|
D(------------------------------------------------------|
A(---7777777777777777-5555555555555555-3333333333333333-|
E(------------------------------------------------------|
P.M. ................ ................ ................

                               Riff 8b addition

e(----------------------)     e(--------------)
B(----------------------)     B(--------------)
G(----------------------)     G(--------------)
D(----------------------)     D(---0=-2=-4=---)
A(--/2222222222222222---)     A(---2=-4=-5=---)
E(----------------------)     E(--------------)
P.M. ................


Verse 3      - Riff 2 (2x)
Pre-Chorus 3 - Riff 3 (2x)
Chorus 3     - Riff 4
Theme 6      - Main Riff b


e(-------)
B(-------)
G(---4---)
D(---4---)
A(---2---)
E(-------)


Symbol explanation:


P.M.  Palm Mute (notes marked with dot)
/     slide
=     sustained


Note: If you find any mistakes please send e-mail
Tap to rate this tab
 
# A B C D E F G H I J K L M N O P Q R S T U V W X Y Z