Song name
# A B C D E F G H I J K L M N O P Q R S T U V W X Y Z

Steel Attack - Dragons Skull tab

Artist: Steel Attack
Title:  Dragon's Skull
Album:  Where Mankind Fails
Transcribed by Roger H. Beck (July 15, 2001)
e-mail address: roger_h_beck@hotmail.com

Standard tuning


Intro
Riff 1 (2x)
                                     1st ending               2nd ending
e(---------------------------------(------------------------)-------------)
B(---------------------------------(------------------------)-------------)
G(---------9-9-9-9-7777-5555-/4444-(------------------------)-5=---/4-----)
D(---7=---10101010-9999-7777-/5555-(-5=--------2=------5=---)-5=---/4-5---)
A(---7=----------------------------(-5=--------2=------5=---)-3=---/2-5---)
E(---5=----------------------------(-3=---0-00-0=-3-33-3=---)---------3---)
P.M.                                      . ..    . ..


Riff 2 (2x)

e(------------------------------------------|
B(------------------------------------------|
G(----9-555--9-7-5-------9-555--9-7-5-------|
D(---10-777-10-9-7--9-5-10-777-10-9-7--9=---|
A(-----------------10-7---------------10=---|
E(------------------------------------------|
P.M.    ...                ...

e(--------------------------------------------)
B(---------------------------6666------8888---)
G(----9-555--9-7-5------4444-7777-5555-9999---)
D(---10-777-10-9-7--9-5-5555------7777--------)
A(-----------------10-7-----------------------)
E(--------------------------------------------)
P.M.    ...


Theme 1
Main Riff a (3x)

e(----------------------------------------------------------|
B(----------------------------------------------------------|
G(-55-00-55-77-88-00-77-88-1010-00-88-1010-1212-1010-88-/77-|
D(----------------------------------------------------------|
A(----------------------------------------------------------|
E(----------------------------------------------------------|

e(----------------------------------------------)
B(----------------------------------------------)
G(-55-00-55-77-88-77-55-/33-55555555-77777777---)
D(----------------------------------------------)
A(----------------------------------------------)
E(----------------------------------------------)

Guitar 2 (2nd and 3rd time only)
e(------------------------------------------------------------------------|
B(------------------------------------------------------------------------|
G(-88-00-88-1010-1212-00-1010-1212-1313-00-1212-1313-1515-1313-1212-/1010-|
D(------------------------------------------------------------------------|
A(------------------------------------------------------------------------|
E(------------------------------------------------------------------------|

e(------------------------------------------------------------)
B(------------------------------------------------------------)
G(-88-00-88-1010-1212-1010-88-/77-88888888-1010101010101010---)
D(------------------------------------------------------------)
A(------------------------------------------------------------)
E(------------------------------------------------------------)


Theme 2
Main Riff b (2x)

e(----------------------------------------------------------|
B(----------------------------------------------------------|
G(-88-00-88-1010-1212-00-1010-1212-77-00-55-77-88-77-55-/33-|
D(----------------------------------------------------------|
A(----------------------------------------------------------|
E(----------------------------------------------------------|

                                    1st ending           2nd ending
e(--------------------------------(----------------------)---------)---|
B(--------------------------------(----------------------)---------)---|
G(-88-00-88-1010-1212-1010-88-/77-(-8888-8=-10101010-10=-)-8=-10=--)-5-|
D(--------------------------------(----------------------)---------)---|
A(--------------------------------(----------------------)---------)---|
E(--------------------------------(----------------------)---------)---|


Verse 1
Riff 3a

e(-----------------------------------------------------|
B(-----------------------------------------------------|
G(-----------------------------------------------------|
D(---1=-3-5-1=-3-5-00000000-1111-3333-0000000000000000-|
A(---3=-5-6-3=-5-6-11111111-3333-5555-1111111111111111-|
E(-----------------------------------------------------|
P.M.               ........ .... .... ................

e(----------------------------------------------------------)
B(----------------------------------------------------------)
G(----------------------------------------------------------)
D(---1=-3-5-1=-3-5-00000000-1111-3333--5555-/6666-5555-3333-)
A(---3=-5-6-3=-5-6-11111111-3333-5555-/6666-/8888-6666-5555-)
E(----------------------------------------------------------)
P.M.               ........ .... ....  ....  .... .... ....


Riff 3b (2x)

e(-----------------------------------------|
B(-----------------------------------------|
G(-----------------------------------------|
D(---11111111-3333-5555-11111111-3333-5555-|
A(---33333333-5555-6666-33333333-5555-6666-|
E(-----------------------------------------|
P.M. ........ .... .... ........ .... ....

     1st ending
e(-----------------------------------------)
B(-----------------------------------------)
G(-----------------------------------------)
D(---00000000-1111-3333-0000000000000000---)
A(---11111111-3333-5555-1111111111111111---)
E(-----------------------------------------)
P.M. ........ .... .... ................

     2nd ending
e(----------------------------------------------)
B(----------------------------------------------)
G(----------------------------------------------)
D(---00000000-1111-3333--5555-/6666-5555-3333---)
A(---11111111-3333-5555-/6666-/8888-6666-5555---)
E(----------------------------------------------)
P.M. ........ .... ....  ....  .... .... ....


Pre-Chorus 1
Riff 4a                                        Riff 4b

e(----------------------------------------) e(-------------------------|
B(----------------------------------------) B(-------------------------|
G(---5=---/3=-----------------------------) G(-5-----5---5-------5-----|
D(---5=---/3=---5=---/6=-/8-8-8-8-8-8-8-8-) D(-5-----5---5-------5-----|
A(---3=---/1=---5=---/6=-/8-8-8-8-8-8-8-8-) A(-3-3-3-3-3-3-3-3-3-3-3-3-|
E(--------------3=---/4=-/6-6-6-6-6-6-6-6-) E(-------------------------|
P.M.                        . . . . . . .        . .   .   . . .   . .

e(---------------------------------------------------------------)
B(---------------------------------------------------------------)
G(---3-----3---3-------3-----------------------------------------)
D(---3-----3---3-------3-----5-----5---5-------5------6=---/8=---)
A(--/1-1-1-1-1-1-1-1-1-1-1-1-5-----5---5-------5------6=---/8=---)
E(---------------------------3-3-3-3-3-3-3-3-3-3-3-3-/4=---/6=---)
P.M.   . .   .   . . .   . .   . .   .   . . .   . .


Riff 4c (2x)

e(-------------------------------------------------------|
B(-------------------------------------------------------|
G(---5-----------------3---------------------------------|
D(---5-----------------3----------------5----------------|
A(---3-33333333333333-/1-11111111111111-5----------------|
E(--------------------------------------3-33333333333333-|
P.M.   ..............    ..............   ..............

    1st ending               2nd ending
e(------------------------)--------------)
B(------------------------)--------------)
G(------------------------)--------------)
D(---6---------8----------)---6=---/8=---)
A(---6---------8----------)---6=---/8=---)
E(--/4-444444-/6-666666---)--/4=---/6=---)
P.M.   ......    ......

Guitar 2 (2x)
e(------------------------------------------------------|
B(------------------------------------------------------|
G(-88-55-77-55-88-55-77-55--1010-77-88-77-1010-77-88-77-|
D(------------------------------------------------------|
A(------------------------------------------------------|
E(------------------------------------------------------|

e(---------------------------------------------------------------)
B(---------------------------------------------------------------)
G(-1212-88-1010-88-1212-88-1010-88--88-55-77-55--1010-77-88-77---)
D(---------------------------------------------------------------)
A(---------------------------------------------------------------)
E(---------------------------------------------------------------)


Riff 4d (2x; Guitar 2 plays same riff as during riff 4c twice)

e(----------------------------------------------------|
B(----------------------------------------------------|
G(---5=---------------3=------------------------------|
D(---5=---------------3=--------------5=--------------|
A(---3=-333333333333-/1=-111111111111-5=--------------|
E(------------------------------------3=-333333333333-|
P.M.    ............     ............    ............

    1st ending             2nd ending
e(----------------------)--------------)
B(----------------------)--------------)
G(----------------------)--------------)
D(---6=-------8=--------)---6=---/8=---)
A(---6=-------8=--------)---6=---/8=---)
E(--/4=-4444-/6=-6666---)--/4=---/6=---)
P.M.    ....     ....


Theme 3 - Main Riff b (2x)


Chorus 1
Riff 5

e(-----------------------------------------------------------------|
B(-----------------------------------------------------------------|
G(-----------------------------------------------------------------|
D(-----------------------------------------------------------------|
A(---66666666-66666666-88888888-1010101010101010-33333333-33333333-|
E(-----------------------------------------------------------------|
P.M. ........ ........ ........  . . . . . . . . ........ ........

e(---------------------------------------------------------|
B(---------------------------------------------------------|
G(---------------------------------------------------------|
D(---------------------------------------------------------|
A(---55555555-55555555-66666666-66666666-55555555-55555555-|
E(---------------------------------------------------------|
P.M. ........ ........ ........ ........ ........ ........

e(---------------------------------------------------------|
B(---------------------------------------------------------|
G(---------------------------------------------------------|
D(---------------------------------------------------------|
A(---55555555-55555555-66666666-66666666-66666666-33333333-|
E(---------------------------------------------------------|
P.M. ........ ........ ........ ........ ........ ........

e(---------------------------------------------------------|
B(---------------------------------------------------------|
G(---------------------------------------------------------|
D(---------------------------------------------------------|
A(---55555555-55555555-55555555-55555555-66666666-66666666-|
E(---------------------------------------------------------|
P.M. ........ ........ ........ ........ ........ ........

e(-----------------------------------------------------------)
B(-----------------------------------------------------------)
G(-----------------------------------------------------------)
D(-----------------------------------------------------------)
A(---66666666-66666666-55555555-55555555-55555555-55555555---)
E(-----------------------------------------------------------)
P.M. ........ ........ ........ ........ ........ ........


Theme 4
Main Riff c (3x)

e(----------------------------------------------------|
B(----------------------------------------------------|
G(-88-55-88-55-77-33-77-33-88-55-88-55-1010-88-77-/33-|
D(----------------------------------------------------|
A(----------------------------------------------------|
E(----------------------------------------------------|

                                             1st    2nd     3rd end.
e(-----------------------------------------(------)-------)---------)
B(-----------------------------------------(------)-------)---------)
G(-88-55-88-55-77-33-77-33-88-88-77-55-/33-(--5---)--5=---)--5===---)
D(-----------------------------------------(------)-------)---------)
A(-----------------------------------------(------)-------)---------)
E(-----------------------------------------(------)-------)---------)


Guitar Solo
Riff 6 (2x)

e(-------------------------------------------|
B(-------------------------------------------|
G(---5---------------------------------------|
D(---5------------------55-33-11-33-11-------|
A(---3-3333333333333333----------------55-11-|
E(-------------------------------------------|
P.M.   ................ .. .. .. .. .. .. ..

e(-------------------------------------------|
B(-------------------------------------------|
G(---5---------------------------------------|
D(---5------------------55-33-11-33-11-------|
A(--/3-3333333333333333----------------55-33-|
E(-------------------------------------------|
P.M.   ................ .. .. .. .. .. .. ..

e(-----------------------------------------|
B(-----------------------------------------|
G(---3-------------------------------------|
D(---3------------------33-11-00-1111-3333-|
A(---1-1111111111111111--------------------|
E(-----------------------------------------|
P.M.   ................ .. .. .. .... ....

e(---------------------------------------------)
B(---------------------------------------------)
G(---5-----------------------------------------)
D(---5------------------55-33-11-33-11---------)
A(---3-3333333333333333----------------55-11---)
E(---------------------------------------------)
P.M.   ................ .. .. .. .. .. .. ..


Theme 5 - Main Riff a (4x; Guitar 2 3rd and 4th time only)


Interlude
Riff 7 (3x)                                  Riff 7 addition

e(-------13-15-16-151615-13----13----------)----------------------------)
B(---13=--------------------16----16-15-11-)-8-9-898-6-8-6---6----------)
G(-----------------------------------------)---------------8---8-7-8=---)
D(-----------------------------------------)----------------------------)
A(-----------------------------------------)----------------------------)
E(-----------------------------------------)----------------------------)


Verse 2      - Riff 3a
               Riff 3b     (2x)
Pre-Chorus 2 - Riff 4a
               Riff 4b
               Riff 4c     (2x; Guitars 1 and 2)
               Riff 4d     (2x; Guitars 1 and 2)
Theme 6      - Main Riff b (2x)
Chorus 2     - Riff 5
Theme 7      - Main Riff c (2x; with 2nd ending 1st time
                                with 1st ending 2nd time)


Main Riff c addition

e(------------------------------------------------------------|
B(------------------------------------------------------------|
G(---88-77-55-/33-5---88-77-55-/33-5=---7=---5=---7=---8===---|
D(------------------------------------------------------------|
A(------------------------------------------------------------|
E(------------------------------------------------------------|

e(----------------------------)
B(----------------------------)
G(---88-77-55-/33-5-555-555---)
D(----------------------------)
A(----------------------------)
E(----------------------------)


Symbol explanation:


P.M.  Palm Mute (notes marked with dot)
/     slide
=     sustained


Note: If you find any mistakes please send e-mail
Tap to rate this tab
 
# A B C D E F G H I J K L M N O P Q R S T U V W X Y Z