Guitaretab - guitar tabs
Song name
# A B C D E F G H I J K L M N O P Q R S T U V W X Y Z

Steel Dragon - Rock Star Soundtrack tab

Livin' The Life

Tuning:standard

^ = bend    S = slide    H = hammer on


|-----------------------------------------------|-------------|
|-----------------------------------------------|-------------|
|-----------------------------------------------|-------------|
|--------------------------------------5----5-4-|-------------|
|-4444---4444---4444---4444---4444-----3----3-2-|-4-----------|
|-2222---2222---2222---2222---2222--------0-----|-2-----------|


                                     + mute
|----------------------------------|---------------------|---------|
|----------------------------------|---------------------|---------|
|---------------------3^-----------|----------+++-----+++|---------|
|--------------------------5----5-4|---+++--2-222---4-444|-5---5-4-|
|-4444---4444---4444-------3----3-2|-4-444--0-000---2-222|-3---3-2-|
|-2222---2222---2222----------0----|-2-222---------------|---0-----|

|---------------------------|-----------------------------------|
|---------------------------|-----------------------------------|
|---------------------------|--------3^-------------------------|
|---------------------------|-7--4------------------------------|
|-4444-4444-4444------------|-5--2------------------------------|
|-2222-2222-2222--0-3^-0-3^-|-----------------------------------|

|-----------------------------------|---|--------|----------------|
|-----------------------------------|---|--------|----------------|
|-----------------------------------|---|--------|----------------|
|--------------------2--------------|---|--------|-7--4-----------|
|-4-4-4-4-4-4----4---0---4---4-4-4-4|-4-|-10--9--|-5--2-----------|
|-2-2-2-2-2-2----2-------2---2-2-2-2|-2-|-0---7--|----------------|

Solo: mess with this

|-------------------|------------------|-------------------------|
|-------------------|------------------|-------------------------|
|-11~--9~--11~--13~-|-12-11-9--------9-|-11~-9~--11~-------------|
|-------------------|----------12-11---|-------------------------|
|-------------------|------------------|-------------------------|
|-------------------|------------------|-------------------------|

|-12-9------------------------------12-9------------------12-9-------|
|-------12-9--------12-9------12-9--------12-9-------12-9-------12-9-|
|-------------11-9--------11--------------------11-9-----------------|
|--------------------------------------------------------------------|
|--------------------------------------------------------------------|
|--------------------------------------------------------------------|

|-15-12-9------12-9--15-12-9------12-11-9---------15-12-10-9--------------|
|---------12-9---------------12-9---------12-10-9------------12-10-9---13^|
|-------------------------------------------------------------------------|
|-------------------------------------------------------------------------|
|-------------------------------------------------------------------------|
|-------------------------------------------------------------------------|


|------------------------------------------------------------------|
|------------------------------------------------------------------|
|-16-18-20-18-16-18-20-18-16-18-10-18-16-18-20----17^-17^-17^-17^--|
|------------------------------------------------------------------|
|------------------------------------------------------------------|
|------------------------------------------------------------------|

|-------------------|-----------------------------------------------------------|
|-------------------|--------------12h14h12-------------------------------------|
|-17-16-14-------14-|-17-17-17-17--------------16^------------------------------|
|----------17-16----|-----------------------------------------------------------|
|-------------------|-----------------------------------------------------------|
|-------------------|-----------------------------------------------------------|

|-------------------------------------------------------------------------------|
|-------------------------------------------------------------------------------|
|-------------------------------------------------------------------------------|
|------------------15-17-19--------------------------------14-16-18--16-17-19---|
|---------15-17-19---------------------14-16-18--16-17-19-----------------------|
|15-17-19-------------------14-16-18--------------------------------------------|


|--------------------------------------------------------------|
|--------------------------------------------------------------|
|--------------------------------------------------------------|
|------------------16-18-20--------------------15-17-19--------|
|---------15-17-19--------------------15-17-19-----------------|
|14-16-18--------------------15-17-19--------------------------|
hold finger your left hand finger at 17 and slide up the neck with
with your right hand finger and hammer on
|----------------------------------------------------------------|
|----------------------------------------------------------------|
|-17h-16s-17h-15s-17h-14s-17h-13s-17-h-12s-17h-11s-17h-10s-17h-9-|
|----------------------------------------------------------------|
|----------------------------------------------------------------|
|----------------------------------------------------------------|

We All Die Young

Tuning: Db Ab Db Gb Bb Eb


h= hammer on
/= slide
^ bend
intro on bass then guitar does this with delay

|-------------------------------------------------------------|
|-------------------------------------------------------------|
|------------------------7-h-9-h-7----------------------------|
|--------------7-h-9------------------------------------------|
|---7-h-9-----------------------------------------------------|
|-------------------------------------------------------------|

      Chorus
|------|------------------------------------------|----------|
|------|------------------------------------------|----------|
|--3^--|------------------------------------------|----------|
|------|--5---4-----------------------------------|----------|
|------|--3---2------------------0----------0--0--|--0-0-----|
|------|---------------5^--------0----------0--0--|--0-0-----|

|----------------------------------------------------------------------------------|
|-8/10-10-10-10-10-10----10\12-12/8-8-8-8-8-8----7\8 8 8 8 8 8----8/-7 7 7 7 7 7---|
|----------------------------------------------------------------------------------|
|----------------------------------------------------------------------------------|
|----------------------------------------------------------------------------------|
|----------------------------------------------------------------------------------|

              mess around with this solo
|---------------------------------------------------------------|
|-----------------------------------------10-----10----10-------|
|---------------7h9h7--7--9^--9^---------9------9-------7^------|
|--------7h9----------------------------------------------------|
|-7h9-----------------------------------------------------------|
|---------------------------------------------------------------|

|-------------------|-----------------------------------------------------------------------|
|-------------------|-10-9-7-----------------7-9---12-11-9--------10-9-7-------12-11-9------|
|----------------7h9|--------9-7---7-9-10-------------------11-9---------9-7----------11-9--|
|--------7h9--------|-----------------------------------------------------------------------|
|-7h9---------------|-----------------------------------------------------------------------|
|-------------------|-----------------------------------------------------------------------|


|---------------------------x3-|------------------------------------------------|
|-12-11-9---10-9-7-------------|-7/10--12^-12^-12^--7h10h12---------------------|
|------------------------------|------------------------------------------10^---|
|------------------------------|------------------------------------------------|
|------------------------------|------------------------------------------------|
|------------------------------|------------------------------------------------|

|--------------9-10-14-10-9----------------------9-10-14-10-9-------------------------9-10-14-10-9-|
|--9-10-14----------------------14-0-9-10-14----------------------14-10-9-10-14--------------------|
|--------------------------------------------------------------------------------------------------|
|--------------------------------------------------------------------------------------------------|
|--------------------------------------------------------------------------------------------------|
|--------------------------------------------------------------------------------------------------|

|-----------------------9-10-15-10-9--|----------------------------|
|-14-10-9-10-14-----------------------|--13^---17^--15^--14^--13^--|
|-------------------------------------|----------------------------|
|-------------------------------------|----------------------------|
|-------------------------------------|----------------------------|
|-------------------------------------|----------------------------|

|------------------------------|-----------------------------------------|
|------------------------------|-----------------------------------------|
|------------------------------|-----------------------------------------|
|-----------------------12--14^|------------------------14h12h14--15^----|
|------------11--15------------|---------------14h15^--------------------|
|-11--15-----------------------|-14h15-17--------------------------------|

|----------------------------------------------------------|
|-18-15-18-15-18-15-18-15----------------------------------|
|--------------------------------------17-15-17-15-17-15---|
|----------------------------------------------------------|
|----------------------------------------------------------|
|----------------------------------------------------------|

Blood Pollution

Tune 1/2 step down

intro:
eb-------------------|--------------------------------------|
Bb-------------------|--------------------------------------|
Gb-------------------|--------------------------------------|
Db--11----9-----11---|--------------------------------------|
Ab---9----7-----9----|--------------------------------------|
Eb-------------------|--------------------------------------|
                                    repeat
eb---------------------------------------|------------------|
Bb---------------------------------------|------------------|
Gb---------------------------------------|------------------|
Db---------------------------------------|-----------0--2---|
Ab---4-4-4-4-4---0-0---4-4-4-4-4---0-0---|-4-4-4-4-4--------|
Eb---0-2-2-0-2---0-0---0-2-2-0-2---0-0---|-0-2-2-0-2--------|

Give me blood....
eb---------------------------------------------------------|
Bb---------------------------------------------------------|
Gb---------------------------------------------------------|
Db---------------------------------------------------------|
Ab---4-4-4-4-4-----------4-4-4-4-4-------------------------|
Eb---0-2-2-0-2---x2-x2---0-2-2-0-2---x2-x2-----------------|
               harmonics            harmonics

eb---------------------------------------------------------|
Bb---------------------------------------------------------|
Gb---------------------------------------------------------|
Db--9------7-----4------~4---------------------------------|
Ab--7------5-----2-----------------------------------------|
Eb---------------------------------------------------------|

Any parts not written use the same 5 chords.

Stand Up

Dropped Bb tuning

~ = Artificial Harmonic

eb---------------------------------------------------------|
Bb---------------------------------------------------------|
Gb---------------------------------------------------------|
Db---------------------------------------------------------|
Ab----------------2-2---2-2---2-2--------------------------|
Bb--6--5--4--3----0-0---0-0---0-0--------------------------|
    with wah

eb---------------------------------------------------------|
Bb---------------------------------------------------------|
Gb---------------------------------------------------------|
Db---------------------------------------------------------|
Ab--2-2--2-2--2-2------------------------------------------|
Bb--0-0--0-0--0-0---0--3--5--5~^--3~-----------------------|
                            up 

Solo
[ Tab from: http://www.guitaretab.com/s/steel-dragon/183206.html ]
Eb--(12)10(12)10(12)10-(10)9(10)9(10)9-(9)7(9)7(9)7--------------------------------------------|
bb---------------------------------------------------(10)7(10)7(10)7-(8)7(8)7(8)7-(7)6(7)6(7)6-|
Gb---------------------------------------------------------------------------------------------|
Db---------------------------------------------------------------------------------------------|
Ab---------------------------------------------------------------------------------------------|
Bb---------------------------------------------------------------------------------------------|

Eb----------------------------------------------|
bb----------------------------------------------|
Gb-(9)7(9)7(9)7-(7)6(7)6(7)6-(6)4(6)4--2WWWW----|
Db----------------------------------------------|
Ab----------------------------------------------|
Bb----------------------------------------------|


All that repeats twice. Then:
|--PM--|
Eb---------|------|------------|
bb-------7-|------|--7--77-9*--|
Gb-------7-|-2x---|--7--77-----|
Db-----7---|------|------------|
Ab-7-9-----|------|------------|
Bb---------|------|------------|

|--PM--|
Eb-----------------------------------|
bb-------7--9b11--7-9-7----------7-9-|
Gb-------7--9b11--7-9-7----------7-9-|
Db-----7-----------------9-9---9-----|
Ab-7-9-------------------------------|
Bb------------------b--9b11----------|

Eb------------------|
bb------------------|
Gb-9b11-------------|2x
Db--------9-8-7-----|
Ab--------------9-8-|
Bb------------------|

Eb---------------------------|
bb---7-----------------------|
Gb-9----9-8-7----------------|
Db------------9-8-7-5-7-7-5--|
Ab---------------------------|
Bb---------------------------|


Eb-------------|--------|-------------|
bb-----9h12-9--|--8x----|--9----12b13-|
Gb-11b13-------|--------|-------------|
Db---11--------|--------|-------------|
Ab-------------|--------|-------------|
Eb-------------|--------|-------------|


This part is played really fast.
Eb-(12)9(12)9(12)9---------------------------------------------------------|
bb------------------(12)9(12)9(12)9(12)9-----------------------------------|
Gb----------------------------------------(11)9(11)9(11)9(11)9------11b14--|
Db-------------------------------------------------------------11-9--------|
Ab-------------------------------------------------------------------------|
Eb-------------------------------------------------------------------------|


This part is actually picked, and is very difficult
Eb-----------------------------------------------------------------------------------|
bb-12-9------12-9-12-9------12-9-12-9------12-9------12-9-12-9------12-9-12-9--------|
Gb------11-9-----------11-9-----------11-9------11-9-----------11-9------------11-9--|
Db-----------------------------------------------------------------------------------|
Ab-----------------------------------------------------------------------------------|
Eb-----------------------------------------------------------------------------------|


Slow down for this part.
Eb-------------------7------------------|
bb-7b9--7-10b12--10--10-7b9--7-10b12-9--|
Gb-9b11---12b14---------9b11---12b14-7--|
Db--------------------------------------|
Ab--------------------------------------|
Bb--------------------------------------|


Eb-------------------7-----------------------------|
bb-7b9--7--10b12-10--10----------------------------|
Gb-9b11----12b14----------9b11-9p7-9b11--9b11-7b9--|
Db-------------------------------------------------|
Ab-------------------------------------------------|
Bb-------------------------------------------------|


Before lead:      repeat
eb-------------------------------|-----------------------------|
Bb-------------------------------|-----------------------------|
Gb-------------------------------|-----------------------------|
Db-------------------------------|-----------------------------|
Ab-0-2-2--0-2-2--0-2-2--0-2-0-2--|-2-4-4--2-4-4--2-4-4--2-4-2-4|
Bb-------------------------------|-----------------------------|

Wasted Generation

Tuning: Db Gb Cb Fb Ab Db

really fast out of tune vibrato
             Repeat
|----16-15-||-16-16-15--16-16-15-||--------------------------------|
|----------||--------------------||--------------------------------|
|----------||--------------------||--------------------------------|
|----------||--------------------||--------------------------------|
|----------||--------------------||--------------------------------|
|----------||--------------------||--------------------------------|

|--------------------------------------------------------------|
|--------------------------------------------------------------|
|--------------------------------------------------------------|
|--------------------------------------------------------------|
|--2-2-2--2-2-2--2-2-2--2-2-2---7--5---------------------------|
|--0-0-0--0-0-0--0-0-0--0-0-0---5--3---------------------------|

Pentatonic scale
|-12-12-12-12---15-12----15-12----15-12----15-12------15-12----12----------------|
|-15-15-15-15---------15-------15-------15-------15---------15----15--13-12------|
|----------------------------------------------------------------------------14~~|
|--------------------------------------------------------------------------------|
|--------------------------------------------------------------------------------|
|--------------------------------------------------------------------------------|

|--------------------------------------------------------------|
|--------------------------------------------------------------|
|--------------------------------------------------------------|
|--------------------------------------------------------------|
|--2-2-2--2-2-2--2-2-2--2-2-2----------------------------------|
|--0-0-0--0-0-0--0-0-0--0-0-0---5~ah---------------------------|


|--------------------------------------------------------------|
|--------------------------------------------------------------|
|--------------------------------------------------------------|
|-9---5---7----------------------------------------------------|
|-7---5---7----------------------------------------------------|
|-0---3---5----------------------------------------------------|
His destination was determination....


During lead:
|------------------------||--------------------------------------|
|------------------------||--------------------------------------|
|------------------------||--------------------------------------|
|------------------------||--5-4-3--2----------------------------|
|------------------------||--3-2-1--0----------------------------|
|-2-2-2---2-2-2---2-2-2--||--------------------------------------|

|--------------------------------------------------------------|
|--------------------------------------------------------------|
|--------------------------------------------------------------|
|--------------------------------------------------------------|
|--4-6--4-6--4-6--4-6-4--7-7-7-7-------------------------------|
|--2-4--2-4--2-4--2-4-2--5-5-5-5-------------------------------|

|--------------------------------------------------------------|
|--------------------------------------------------------------|
|--------------------------------------------------------------|
|--------------------------------------------------------------|
|--4-6--4-6--4-6--4-6-4--6-7-6-7-------------------------------|
|--2-4--2-4--2-4--2-4-2--4-5-4-5-------------------------------|


|--------------------------------------------------------------|
|--------------------------------------------------------------|
|--------------------------------------------------------------|
|--------------------------------------------------------------|
|---4-6--4-6--4-6--4-6-4--7-7-7-7------------------------------|
|---2-4--2-4--2-4--2-4-2--5-5-5-5------------------------------|


|--------------------------------------------------------------|
|--------------------------------------------------------------|
|--------------------------------------------------------------|
|------------------------------------------2-------------------|
|--5-5-5-5--5-5-5-5---7-7-7-7--7-7-7-7-----2-------------------|
|--3-3-3-3--3-3-3-3---5-5-5-5--5-5-5-5-----0-------------------|

Outro riff:
|--------------------------------------------------------------|
|--------------------------------------------------------------|
|--------------------------------------------------------------|
|--------------------------------------------------------------|
|--2-2-2--2-2-2--2-2-2--2-2-2---5/7-5/7------------------------|
|--0-0-0--0-0-0--0-0-0--0-0-0---3/5-3/5------------------------|

Long Live Rock And Roll

Single 0s indicate filler notes.

e---------------------------------------------------------|
B---------------------------------------------------------|
G---------------4----2------------------------------------|
D---------------4-0--2-4--2---2---2-4---------------------|
A--2-3-4---------------4--2-0-2-0-2-4---------------------|
E--0-1-2-2--0---------------------------------------------|


e---------------------------------------------------------|
B---------------------------------------------------------|
G----4----2-----------------------------------------------|
D----4-0--2-4---------------------------------------------|
A-----------4---------------------------------------------|
E--------------0-1-0-1-2~---------------------------------|


e---------------------------------------------------------|
B---------------------------------------------------------|
G---------------------------------------------------------|
D--4-2----------------------------------------------------|
A-------4-2-------2-3-4-----------------------------------|
E------------5-2--0-1-2-----------------------------------|


The timing for this riff is a bit tricky.
                              Fill1    Fill2
e---------------------------|-------|-----------------------|
B---------------------------|-------|-----------------------|
G---------------------------|-------|-----------------------|
D--------~4-----------------|-------|--4-2-4-2-4-2-4-2------|
A------------------4-2---0--|-------|-----------------------|
E--0-0------0-0-X-----------|---3~--|-----------------------|

e----------------------|------|-----------------------------|
B----------------------|--2---|-----------------------------|
G--2-------------2--4--|--4~--|-----------------------------|
D--0-----4-------0--2--|------|-----------------------------|
A-----2--2--4----------|------|---------------------2-3-4---|
E-----0-----2----------|------|-0-0-0-0--0-0-0-0----0-1-2---|

Crown Of Falsehood

Tuning: Dropped B Tuning, down half a step. (Bb,Ab,Db,Gb,Bb,Eb)
	.= Palm Mute
	*= Pinch Harmonic

Intro:

|--------------------------------------------------------------|
|--------------------------------------------------------------|
|--------------------------------------------------------------|
|------------------------------------------------2--5----------|
|---------------0--0-----------------------------0--2----------|
|-0-6-5-0-3-5-0-0--0-0-0-0-0-0---0-6-5-0-3-5-0-0---------------|
  . . . . . . .        . . . .   . . . . . . . .
  P.M.

Verse:

|--------------------------------------------------------------|
|--------------------------------------------------------------|
|--------------------------------------------------------------|
|--------------------------------------------------------2-----|
|--------------------------------------------------------0-----|
|--3^-3~-0-0-0--0-0--\12-0-0-\12---3^-3~-0-0-0--0-0--3/5-------|
   *  *				   *  *
		   (12th fret is approx. Zakk just slides from
		    somewhere probably above 7th fret)


|--------------------------------------------------------------|
|--------------------------------------------------------------|
|--------------------------------------------------------------|
|---------------------------------------------------------7----|
|---------------------------------------------------------x----|
|--3^-3~-0-0-0--0-0--\12-0-0-\12---3^-3~-0-0-0--0-0--3/5-------|
   *  *                            *  *                   *

Pre-Chorus:

|--------------------------------------------------------------|
|--------------------------------------------------------------|
|--------------------------------------------------------------|
|--------------------------------------------------------------|
|--------------------7bpo5--7bpo5--7bpo5--7bpo5----------------|
|--3^-3~-0-0-0--0-0------------------------------00000000------|
                     *      *      *      *
		     (Bend up Half Step and Release, then pull
			off to 5)
|--------------------------------------------------------------|
|--------------------------------------------------------------|
|--------------------------------------------------------------|
|------------------------------------------------------------2-|
|--------------------7bpo5--7bpo5--7bpo5--7bpo5--------------0-|
|--3^-3~-0-0-0--0-0-------------------------------0-0-0-0-0----|
                     *      *      *      *       . . . . .

Return to the Intro Riff for the Chorus and Solo Backing
Related for Rock Star Soundtrack tab