Song name
# A B C D E F G H I J K L M N O P Q R S T U V W X Y Z

Steel Dragon - Colorful tab

Well, I seen a couple of chords posted up but it sounded off so I figured out what 
was wrong with it, they weren't suspended chords. Here are what I think the right 
chords are, but this is just the rhythm part to the song 

If you have any comments, just e-mail me at machineheadt21@yahoo.com and let me know!     ^_^



All verses/intro/solo/Chorus

"Show is over ... reaching for the door..."
E|--------3-2---|
B|---2-3--3-3---|
G|---2-2--2-2---|
D|---2-2--------|
A|--------------|
E|--------------|


"I watch the backs ... Cheering all the while..."
E|---1-1-1-1-1-1--3-3-3-3-3-3-3-3---|\
B|---1-1-1-1-1-1--3-3-3-3-3-3-3-3---| \
G|---2-2-2-2-2-2--4-4-4-4-4-4-4-4---|  \ X2
D|---3-3-3-3-3-3--5-5-5-5-5-5-5-5---|  /
A|---3-3-3-3-3-3--5-5-5-5-5-5-5-5---| /
E|---1-1-1-1-1-1--3-3-3-3-3-3-3-3---|/
     D D D U D U  D D D U D U D U

Then back the beginning.
  That is pretty much the song for the rhythm guitar. 
 Like I said, comment and let me know of anything that you may want me to put into the song
Tap to rate this tab
# A B C D E F G H I J K L M N O P Q R S T U V W X Y Z