Song name
# A B C D E F G H I J K L M N O P Q R S T U V W X Y Z

Steel Dragon - Reckless tab

Intro part 1

Guitar 1  (clean)

e|---------0------------0----------0-|
B|-----------------------------------|
G|-----------------------------------|
D|-----------------------------------|
A|-----------------------------------|
E|--5----------1-0-----------3-------|  x12

Guitar 2 (distorted added on the 6th time)
e|---------------------------------------|
B|---------------------------------------|
G|---------------------------------------|
D|---------------------------------------|
A|---------12----------------7-----------|
E|---------------------------------------|

Intro part 2

Both guitars  (distorted)
e|-------------------------------------------------------------------------|
B|-------------------------------------------------------------------------|
G|-------------------------------------------------------------------------|
D|-------------------------------------------------------------------------|
A|--------------------------------5(AH)---------------------------------5--|
E|--0--000300050006007--0030005007-------0--0003005006007--003000567-------|

Verse- same as intro part 2. Listen for timing.

Pre-chorus part 1 (mama's stayin out all night, dady's shootin china white)
e|-------------------------------------------------------------------------|
B|-------------------------------------------------------------------------|
G|-------------------------------------------------------------------------|
D|999999999999-7-9999999999999-7-9999999999999-7-99999999-5-5-4444---------|
A|999999999999-7-9999999999999-7-9999999999999-7-99999999-5-5-4444---------|
E|777777777777-5-7777777777777-5-7777777777777-5-77777777-3-3-2222---------|

Pre-chorus part 2 (my world shows you no justice in life)
e|-------------------------------------------------------------------------|
B|-------------------------------------------------------------------------|
G|-------------------------------------------------------------------------|
D|---------------------------------9-9-7-99997-7-99999-xxxx-99997-7--------|
A|7------------------7------2---7--------99997-7-99999-xxxx-99997-7--------|
E|-87-10-0-2-3-7-5-3--87-2-3-5-3-87------77775-5-77777-xxxx-77775-5-7875753|

Chorus-same as intro part 2/verse

Verse 2 same as verse 1 only when he sings Somthin for nothin baby play this:
e|--------------------------------------------------------------------------|
B|--------------------------------------------------------------------------|
G|12-9-7-9------------------------------------------------------------------|
D|12-9-7-9------------------------------------------------------------------|
A|10-7-5-7------------------------------------------------------------------|
E|--------------------------------------------------------------------------|
Listen to this part for timing of when this comes in

Bridge
e|--------------------------------------------------------------------------|
B|--------------------------------------------------------------------------|
D|--------------------------------------------------------------------------|
G|7-------------------------------------------------------------------------|
A|7-------------------------------------------------------------------------|
E|5-------------------------------------------------------------------------|
Hold this untill he says take me to my early grave then play intro part 1. Again listen 
the timing.

Solo:
play intro part one 2 times then play pre-chorus part 1.

Order:
Intro(part 1 and 2)
verse 1
pre-chorus(1 and 2)
chorus
verse 2
pre-chorus(1 and 2)
Bridge
Solo
Pre-chorus(part 2 only)
Chorus untill end

Listen for time all the parts
Tap to rate this tab
# A B C D E F G H I J K L M N O P Q R S T U V W X Y Z