Song name
# A B C D E F G H I J K L M N O P Q R S T U V W X Y Z

Steel Dragon - Long Live Rock And Roll tab

Band |-------Steel-Dragon--------|
Song |---Long-Live-Rock'n'roll---|
Album|----Rockstar-soundtrack----|
Tabbed by Lele =D


///// = pick slide
. = palm mute
* = pinch harmonics
h = hammer on
w = wah-wah 
p = pull off

Intro
|--------------------|--------------------------------|
|--------------------|--------------------------------|
|--------------------|------4---2---------------------|
|----/////////-------|------4-x-2--4*---x2*-x2*-2*-4*-|
|---/////////---2--3-|-4-4--------------x---x---------|
|--/////////----0--1-|-2-2----------------------------|
                       . .                              

|------------------------------| 
|------------------------------|
|------4---2-------------------|
|------4-x-2--4----------------|
|-4-4---------4----------------|
|-2-2-------------0-1-0-1-2*---|
  . .

|--------------------------------|----------------------------|
|--------------------------------|----------------------------|
|------4---2---------------------|----------------------------|
|------4-x-2--4*---x2*-x2*-2*-4*-|--4--2----------------------|
|-4-4--------------x---x---------|-4------4*--2--0------2--3--|
|-2-2----------------------------|------------------2*--0--1--|
  . .                              

Verse
|----------------------|x3|-----------|
|----------------------|  |-----------|
|----------------------|  |-----------|
|------4*-------4-2----|  |-----------|
|-------------------4--|  |-----------|
|-2-2-------2-2--------|  |-1-0-1-2*--|
  . .       . . . . .

|----------------------|x3|-----------------|
|----------------------|  |-----------------|
|----------------------|  |-----------------|
|------4*-------4-2----|  |-2h4p2h4p2h4p2h4-|
|-------------------4--|  |-----------------|
|-2-2-------2-2--------|  |-----------------|
  . .       . . . . .

Pre-Chorus
|--------------------------|------------|
|--------------------------|------------|
|--------------------------|--2--4--6w--|
|-----2----------4---------|--0--2--4w--|
|-----0------2---2------4--|------------|
|-2-4----4-2-0------5-4-2*-|------------|

|--------------------------|------------------------|
|--------------------------|------------------------|
|--------------------------|------------------------|
|-----2----------4---------|------------------------|
|-----0------2---2------4--|--------------------2-3-|
|-2-4----4-2-0------5-4-2*-|-000000000000000000-0-1-|
                             ..................


Chorus
|--------------------------------|------------------------------| 
|--------------------------------|------------------------------|
|------4---2---------------------|------4---2-------------------|
|------4-x-2--4*---x2*-x2*-2*-4*-|------4-x-2--4----------------|
|-4-4--------------x---x---------|-4-4---------4----------------|
|-2-2----------------------------|-2-2-------------0-1-0-1-2*---|
  . .                              . .    


|--------------------------------|----------------------------|
|--------------------------------|----------------------------|
|------4---2---------------------|----------------------------|
|------4-x-2--4*---x2*-x2*-2*-4*-|--4--2----------------------|
|-4-4--------------x---x---------|-4------4*--2--0------2--3--|
|-2-2----------------------------|------------------2*--0--1--|
  . .                              .

I'm sorry, but I can't tab the solo =P
Here there is the second guitar part

Guitar 2 
|---------------------------------|-------------|x4
|---------------------------------|-------------|
|---------------------------------|-------------|
|---------------------------------|-------------|
|---------------------------------|-2-4-5-5-4-2-|
|-2-4-4-4-2-4---2-4-2-4---2-4-2-4-|-------------|
  . . . . . .   . . . .   . . . .

|---------------------------------|-------------|x2
|---------------------------------|-------------|
|---------------------------------|-------------|
|---------------------------------|-------------|
|---------------------------------|-4-6-7-7-6-4-|
|-4-6-6-6-4-6---4-6-4-6---4-6-4-6-|-------------|
  . . . . . .   . . . .   . . . .

|---------------------------------|-------------|
|---------------------------------|-------------|
|---------------------------------|-------------|
|---------------------------------|-------------|
|---------------------------------|-2-4-5-5-4-2-|
|-2-4-4-4-2-4---2-4-2-4---2-4-2-4-|-------------|
  . . . . . .   . . . .   . . . .

|-----------------------|---------------------------|
|-----------------------|---------------------------|
|-----------------------|---------------------------|
|-----------------------|-4--2----------------------|
|-----------------------|-------4*--2--0------2--3--|
|-2-4-4-4-2-4---2-4-2-4-|-----------------2*--0--1--|
  . . . . . .   . . . .   
Tap to rate this tab
# A B C D E F G H I J K L M N O P Q R S T U V W X Y Z