Song name
# A B C D E F G H I J K L M N O P Q R S T U V W X Y Z

Steel Dragon - Blood Pollution tab

Tabbed by Ben Vasquez C.C. Texas
hey again here is another song i tabbed off of the Rock Star soundtrack
this one is entitled "Blood Pollution" by Steel Dragon


intro:             4x
eb-------------------|--------------------------------------|
Bb-------------------|--------------------------------------|
Gb-------------------|--------------------------------------|
Db--11----9-----11---|--------------------------------------|
Ab---9----7-----9----|--------------------------------------|
Eb-------------------|--------------------------------------|
   2nd time try to "nail the squeel"

                                    2x
eb---------------------------------------|------------------|
Bb---------------------------------------|------------------|
Gb---------------------------------------|------------------|
Db---------------------------------------|-----------0--2---|
Ab---4-4-4-4-4---------4-4-4-4-4---------|-4-4-4-4-4--------|
Eb---0-2-2-0-2---0-0---0-2-2-0-2---0-0---|-0-2-2-0-2--------|


Give me blood....
eb---------------------------------------------------------|
Bb---------------------------------------------------------|
Gb---------------------------------------------------------|
Db---------------------------------------------------------|
Ab---4-4-4-4-4-----------4-4-4-4-4-------------------------|
Eb---0-2-2-0-2--2x--2x---0-2-2-0-2--2x-2x------------------|
               Harmonics            Harmonics

eb---------------------------------------------------------|
Bb---------------------------------------------------------|
Gb---------------------------------------------------------|
Db--9------7-----4------~4---------------------------------|
Ab--7------5-----2-----------------------------------------|
Eb---------------------------------------------------------|


thats all i hope you enjoy this piece it really rocks learn it, memorize
it, and show it off to all the people who cant play it
Tap to rate this tab
 
# A B C D E F G H I J K L M N O P Q R S T U V W X Y Z