Song name
# A B C D E F G H I J K L M N O P Q R S T U V W X Y Z

Steel Dragon - Wasted Generation tab

Tabbed By Ben Vasques C.C. Texas
im gettin tired but here is another off the Rock Star sound track
this one is entitled "Wasted Generation" by Steel Dragon


Repeat
|----16-15-||-16-16-15--16-16-15-||--------------------------------|
|----------||--------------------||--------------------------------|
|----------||--------------------||--------------------------------|
|----------||--------------------||--------------------------------|
|----------||--------------------||--------------------------------|
|----------||--------------------||--------------------------------|
do this with a whammy or tremelo pushed twords the body


|--------------------------------------------------------------|
|--------------------------------------------------------------|
|--------------------------------------------------------------|
|--------------------------------------------------------------|
|--2-2-2--2-2-2--2-2-2--2-2-2---7--5---------------------------|
|--0-0-0--0-0-0--0-0-0--0-0-0---5--3---------------------------|

|-12-12-12-12---15-12----15-12----15-12----15-12------15-12----12----------------|
|-15-15-15-15---------15-------15-------15-------15---------15----15--13-12------|
|----------------------------------------------------------------------------14~~|
|--------------------------------------------------------------------------------|
|--------------------------------------------------------------------------------|
|--------------------------------------------------------------------------------|

|--------------------------------------------------------------|
|--------------------------------------------------------------|
|--------------------------------------------------------------|
|--------------------------------------------------------------|
|--2-2-2--2-2-2--2-2-2--2-2-2----------------------------------|
|--0-0-0--0-0-0--0-0-0--0-0-0---5~ah---------------------------|


|--------------------------------------------------------------|
|--------------------------------------------------------------|
|--------------------------------------------------------------|
|-9---5---7----------------------------------------------------|
|-7---5---7----------------------------------------------------|
|-0---3---5----------------------------------------------------|
His destination was determination....


|------------------------||--------------------------------------|
|------------------------||--------------------------------------|
|------------------------||--------------------------------------|
|------------------------||--5-4-3--2----------------------------|
|------------------------||--3-2-1--0----------------------------|
|-2-2-2---2-2-2---2-2-2--||--------------------------------------|
while lead is playing

|--------------------------------------------------------------|
|--------------------------------------------------------------|
|--------------------------------------------------------------|
|--------------------------------------------------------------|
|--4-6--4-6--4-6--4-6-4--7-7-7-7-------------------------------|
|--2-4--2-4--2-4--2-4-2--5-5-5-5-------------------------------|

|--------------------------------------------------------------|
|--------------------------------------------------------------|
|--------------------------------------------------------------|
|--------------------------------------------------------------|
|--4-6--4-6--4-6--4-6-4--6-7-6-7-------------------------------|
|--2-4--2-4--2-4--2-4-2--4-5-4-5-------------------------------|


|--------------------------------------------------------------|
|--------------------------------------------------------------|
|--------------------------------------------------------------|
|--------------------------------------------------------------|
|---4-6--4-6--4-6--4-6-4--7-7-7-7------------------------------|
|---2-4--2-4--2-4--2-4-2--5-5-5-5------------------------------|


|--------------------------------------------------------------|
|--------------------------------------------------------------|
|--------------------------------------------------------------|
|------------------------------------------2-------------------|
|--5-5-5-5--5-5-5-5---7-7-7-7--7-7-7-7-----2-------------------|
|--3-3-3-3--3-3-3-3---5-5-5-5--5-5-5-5-----0-------------------|

Outro
|--------------------------------------------------------------|
|--------------------------------------------------------------|
|--------------------------------------------------------------|
|--------------------------------------------------------------|
|--2-2-2--2-2-2--2-2-2--2-2-2---5/7-5/7------------------------|
|--0-0-0--0-0-0--0-0-0--0-0-0---3/5-3/5------------------------|


ok thats it "Learn it, Memorize it, Show it off to those who cant play it"... Ben Vasquez
Tap to rate this tab
# A B C D E F G H I J K L M N O P Q R S T U V W X Y Z