Song name
# A B C D E F G H I J K L M N O P Q R S T U V W X Y Z

Steel Dragon - Parting Time tab

ahhh, pgpa sensyahan nyo lng po itong tabs na to... pakinggan nyo nlng yong kanta para sa timing... hehe..
hi mhaymahy...

INTRO:

e|-------9-------12-----12-12-10-9--9--9-10-9-14-12-9-9-10-9----------|
B|-10-12---12-10---10-12----------12-10---------------------12-10-12--|
G|--------------------------------------------------------------------|
D|--------------------------------------------------------------------|
A|--------------------------------------------------------------------|
E|--------------------------------------------------------------------|

hehe....

e|------------------------------------------------------------------/15~--|
B|-15~15~15-13-------------------------------13-15/16p15--15-13p11--------|
G|------------15-12-15-12--12--------12-14/15-----------------------------|
D|-----------------------15--12-13-15-------------------15--------12------|
A|------------------------------------------------------------------------|
E|------------------------------------------------------------------------|


e|--------------------------------13--13--15/18-15-15p13--13-15p13-20-18--|
B|------------------------------15--15--15--------------16----------------|
G|-----12-----14-14-12--14-15~15------------------------------------------|
D|-12----15-13--------15--------------------------------------------------|
A|---13-------------------------------------------------------------------|
E|------------------------------------------------------------------------|

para to sa nag iisang BASKuG na si Mhaymahy....
enjoy mga BASTKuG!!!!


Tap to rate this tab
 
# A B C D E F G H I J K L M N O P Q R S T U V W X Y Z