Song name
# A B C D E F G H I J K L M N O P Q R S T U V W X Y Z

Steel Fingers - Fingers From God tab

  UNTITLED


CREATED BY: MATTHEW DENOMME
Email: matthew_guitarguy@hotmail.com



LEGEND

/- SLIDE UP THE NECK
\- SLIDE DOWN THE NECK
~- LET THE NOTE RING FOR THE FULL EXSTENT


[INTRO]

e|---------------------------|
B|---------------------------|
G|---------------------------|
D|--8~---6~---4~---2~---1~---|
A|--9~---7~---5~---3~---2~---|
E|--0~---0~---0~---0~---0~---|

e|--------------------------------|
B|--------------------------------|
G|--------------------------------|
D|--2---2--4---4--6---6--8---8--10|
A|------3------5------7------9----|
E|------0------0------0------0----|

e|--------------------------------------------------------------------|
B|--------------------------------------------------------------------|
G|--------------------------------------------------------------------|
D|--8--10--11--10--8---6--8--9--8--6---4--6--7--6--4---2--4--5--4--2--|
A|--9~-----------------7~--------------5~--------------3~-------------|
E|--0~-----------------0~--------------0~--------------0~-------------|

e|--------------------------------------|
B|--------------------------------------|
G|--------------------------------------|
D|--1~---1\-2~---2---2---0---0---0---0--|
A|--2~---0~----------0-------0-------0--|
E|--0~----------------------------------|

[END]

VERSE 1

e|---------------------------------------------------------------------|
B|---------------------------------------------------------------------|
G|---------------------------------------------------------------------| x4
D|--1\---6---6--7--9-----6--7-----6/---4--4--5--7-----4--5-----4\---6--|
A|--2\---7---7--------7--------7--7/---5--5--------5--------5--5\---7--|
E|--0\---0---0----------------------------0----------------------------|

VERSE 2

e|------------------------------------------------------------|
B|------------------------------------------------------------|
G|--------9----------------------------7----------------------| x2
D|--6--7--9-----6--7-----6/---4--4--5--7-----4--5-----4\---6--|
A|--7--------7--------7--7/---5--5--------5--------5--5\---7--|
E|--0----------------------------0----------------------------|


e|---------------------------------------------------------------|
B|---------------------------------------------------------------|
G|-----7--9---------------------------5--7-----------------------| x2
D|--6--------9--7/-6\-7---6/---4---4--------7--5/-4\-5---4\---6--|
A|--7---------------------7/---5---5---------------------5\---7--|
E|--0------------------------------0-----------------------------|


VERSE 3

e|------------------------------------------|
B|------------------------------------------|
G|-----7------7------7--9-------------------|
D|--6--7---6--7---6--7-----9--7/-6\-7---6/--|
A|--7------7------7---------------------7/--|
E|--0------0------0-------------------------|

                                                     x2

e|-------------------------------------------------|
B|-------------------------------------------------|
G|---------5------5------5--7----------------------|
D|--4---4--5---4--5---4--5----7--5/-4\-5---4\---6--|
A|--5---5------5------5--------------------5\---7--|
E|------0------0------0----------------------------|

This is only the first three verses . i have finished the hole song just not tabbed it 
out but solo and all its so sick. i try to finish it as soon as posible
Tap to rate this tab
# A B C D E F G H I J K L M N O P Q R S T U V W X Y Z