Song name
# A B C D E F G H I J K L M N O P Q R S T U V W X Y Z

Steel Panther - Death To All But Metal tab

Steel Panther
Death To All But Metal
Tuned to E flat

Intro:
E-----------------------------------------------------------------------|
B-----------------------------------------------------------------------|
G---------5----------5----------5----------5----------5--7--8-----------|
D---------5----------5----------5----------5----------5--7--8-----------|
A--0000---3---0000---3---0000---3---0000---3---0000---3--5--6-----------|
E-----------------------------------------------------------------------|


Main Riff Played through verse:
E-----------------------------------------------------------------------|
G-----------------------------------------------------------------------|
D-----------------------------------------------------------------------|
A-----------------------------------------------------------------------|
E----0 0 3 5 6 5 3 0-----------------------5 5 6 7 6 5 3 0--------------|


Pre Chorus:
E-----------------------------------------------------------------------|
B-----------------------------------------------------------------------|
G---1---------5----7----------------------------------------------------|
D---2----5----5----7----------------------------------------------------|
A---2----5----3----5----------------------------------------------------|
E---0----3--------------------------------------------------------------|

Chorus:
E-----------------------------------------------------------------------|
B-----------------------------------------------------------------------|
G---8--7--5----------5----------5----------5----------5-----------------|
D---8--7--5----------5----------5----------5----------5-----------------|
A---6--5--3---0000---3---0000---3---0000---3---0000---3-----------------|
E-----------------------------------------------------------------------|

Chorus Continued:
Riff that brings you back into the verse
E-----------------------------------------------------------------------|
B-----------------------------------------------------------------------|
G---5--7--8-------------------------------------------------------------|
D---5--7--8-------------------------------------------------------------|
A---3--5--6-------------------------------------------------------------|
E-----------------------------------------------------------------------|

2nd pre chorus changes
E-----------------------------------------------------------------------|
B-----------------------------------------------------------------------|
G---1---------5----7----------------------------------------------------|
D---2----5----5----7-------14--12------12-------12----------------------|
A---2----5----3----5---------------14-------14-------12---10------------|
E---0----3--------------------------------------------------------------|

Chorus:
E-----------------------------------------------------------------------|
B-----------------------------------------------------------------------|
G---8--7--5----------5----------5----------5----------5-----------------|
D---8--7--5----------5----------5----------5----------5-----------------|
A---6--5--3---0000---3---0000---3---0000---3---0000---3-----------------|
E-----------------------------------------------------------------------|

Chorus Continued:
Riff that brings you into the BRIDGE
E-------------------------------------------------------------------------|
B-------------------------------------------------------------------------|
G---8--7--5--7--5---------------------------------------------------------|
D---8--7--5--7--5--5------------------------------------------------------|
A---6--5--3--5--3--5------------------------------------------------------|
E------------------3------------------------------------------------------|

Bridge:
E------------------------------------------------------------------------|
B------------------------------------------------------------------------|
G------4---9---9--------4--5-----8--7------------------------------------|
D--4---4---9---9----4---4--5--5--8--7------------------------------------|
A--4---2---7---6----4---2--3--5--6--5------------------------------------|
E--2----------------2---------3------------------------------------------|

Into the solo
 I havent had time to tab the solo yet but i will at some point :-)
Tap to rate this tab
# A B C D E F G H I J K L M N O P Q R S T U V W X Y Z