Song name
# A B C D E F G H I J K L M N O P Q R S T U V W X Y Z

Steel Panther - Community Property tab

Steel Panther
Community Property
E Flat Tuning
Basic tab

Verse:
e-------------------|
b-------------------|
g-4----4---4--------|
d-2----2---4--------|
a-0----4---2--------|
e-------------------|


Chorus:
e----------2---------|
b------2---4---------|
g--2---2---4---------|
d--2---2---4---------|
a--2-------2---------|
e--------------------|
   E   A   B
Tap to rate this tab
# A B C D E F G H I J K L M N O P Q R S T U V W X Y Z