Song name
# A B C D E F G H I J K L M N O P Q R S T U V W X Y Z

Steel Panther - Community Property tab

COMMUNITY PROPERTY
Steel Panther
Tabbed by T
any complaints, suggestions, death threats etc-wasssup@hotmail.co.uk
tuning: Eb (eb Bb Gb Db Ab Eb)

intro/1st verse:

listen to the song for timings and amount of strums etc,
I'm just gonna do the chords

e-------------------------------|
B-------------------------------|
G---4-4----4----4-4-4-4-4-4-4-4-|
D--2--2----2----4-4-4-4-4-4-4-4-|
A-0---0----4----2-2-2-0-2-2-2-0-|
E-------------------------------|

e-------------------------------|
B-------------------------------|
G----4----4----4-4-4-4-4-4-4-4--|
D----2----2----4-4-4-4-4-4-4-4--|
A----0----4----2-2-2-0-2-2-2-0--|
E-------------------------------|

e-------------------------------|
B-------------------------------|
G----4----4----4-4-4-4-4-4-4-4--|
D----2----2----4-4-4-4-4-4-4-4--|
A----0----4----2-2-2-0-2-2-2-0--|
E-------------------------------|

CHORUS

  E    A    B
e--------------| X3
B--------------|
G------2----4--|
D-2----2----4--|
A-2----0----2--|
E-0------------|

or if you want a fuller sound you could try:
  E    A    B
e-0----0----2-|
B-0----x----x-|
G-x----2----4-|
D-2----2----4-|
A-2----0----2-|
E-0-----------|

fourth time round, just hit the E and sustain it

VERSE 2

e------------------------------|
B------------------------------|
G----4----4----4-4-4-4-4-4-4-4-|
D----2----2----4-4-4-4-4-4-4-4-|
A----0----4----2-2-2-0-2-2-2-0-|
E------------------------------|

e-------------------------------|
B-------------------------------|
G----4----4----4-4-4-4-4-4-4-4--|
D----2----2----4-4-4-4-4-4-4-4--|
A----0----4----2-2-2-0-2-2-2-0--|
E-------------------------------|

e-------------------------------|
B-------------------------------|
G----4----4----4-4-4-4-4-4-4-4--|
D----2----2----4-4-4-4-4-4-4-4--|
A----0----4----2-2-2-0-2-2-2-0--|
E-------------------------------|

the violin-y fills at the end of each set of chords go something like this:

e-15-13-12----------------|
B----------13-------------|
G-------------12-10-9-----|
D---------------------10--|
A-------------------------|
E-------------------------|

CHORUS

if you've got two guitarists to hand, one of you should grab an
electric and use the power chords, and one should use an acoustic and
the full chords.

  E    A    B
e--------------| X3
B--------------|
G------2----4--|
D-2----2----4--|
A-2----0----2--|
E-0------------|

  E    A    B
e-0----0----2-|
B-0----x----x-|
G-x----2----4-|
D-2----2----4-|
A-2----0----2-|
E-0-----------|

then when the after the third time, sustain th A chord until this next bit:

e-------------|
B-------------|
G-222-444-446-|
D-222-444-446-|
A-000-222-224-|
E-------------|

BRIDGE

cant work out exact number of strums, so feel free to do whatever 
the hell you want
      sustain
e------------------|
B------------------|
G-4--6--2-----22---|
D-4--6--2-----22---|
A-2--4--0-----00---|
E-------------00---|
pm         ..  ..  .. 
e----------------------|
B----------------------|
G-4--6--2----2---2---2-|
D-4--6--2----2---2---2-|
A-2--4--0--000-000-000-|
E--------------------0-|

theres another little violin-y thing here, cant hear what the guitar
plays, but the violin-y bit goes kind of like this

e--------------------|
B--------------------|
G-------9-10-12-14---|
D-10-12--------------|
A--------------------|
E--------------------|

SOLO

i'm just gonna tab the phrases, once again i'll leave timings to you
guys. here goes:
light pm             .  .  .
e-15~-12-14-10h12p10----------------|
B-----------------------12-14-12~---|
G--------------------14-------------|
D-----------------------------------|
A-----------------------------------|
E-----------------------------------|
pinch these notes slightly
e-----------------------|
B-12--------------------|
G----14-12-11----9-11---|
D-------------11------9-|
A-----------------------|
E-----------------------|
pm. .  .  . .  .            fast
e--------------------------12141517~-14-12-|
B-----------------10-12-14-----------------|
G---------9-11-13--------------------------|
D-9-11-13----------------------------------|
A------------------------------------------|
E------------------------------------------|
shred time! this bit might not be 100%
e---------17-19p17p16----------19p17p16-21p19p17-|
B------14-------------19p17p16-------------------|
G--/16-------------------------------------------|
D------------------------------------------------|
A------------------------------------------------|
E------------------------------------------------|

e-19p17p16----------------------------------------------------|
B---------19p17p16h19p17p16h19p17p16h19p17p16-----------------|
G----------------------------------------------16--14---------|
D------------------------------------------------------12--14~|
A-------------------------------------------------------------|
E-------------------------------------------------------------|

Verse 3

e------0-------0-------0-------0--------0-------0-------0-------0---| x3
B----0---0---0---0---0---0---0---0----4---4---4---4---4---4---4---4-|
G--2-------2-------1-------1--------4-------4-------4-------4-------|
D-------------------------------------------------------------------|
A-------------------------------------------------------------------|
E-------------------------------------------------------------------|
violin-y fill just before the chorus:
e------------------|
B------------------|
G--------8-9-11-13-|
D-7-9-11-----------|
A------------------|
E------------------|

CHORUS

e--------------| X4
B--------------|
G------2----4--|
D-2----2----4--|
A-2----0----2--|
E-0------------|
the little solo running underneath the chorus goes like this:
e-----16-------------------16-------------|
B---17--17~~16-14--------17--17~~16-14----|
G-16--------------16~~-16--------------16-|
D-----------------------------------------|
A-----------------------------------------|
E-----------------------------------------|

e-------------------------------19----------------------19------|
B----16-17-16----16----16----16----16----16----16----16---16----|
G-16----------16----16----16----------16----16----16------------|
D---------------------------------------------------------------|
A---------------------------------------------------------------|
E---------------------------------------------------------------|

e-16b18r16b18-16p14-------|
B-------------------16-17-|
G-------------------------|
D-------------------------|
A-------------------------|
E-------------------------|
whilst that goes on, the rythm guitar just plays the chorus.
the chord that rings out is the B

\m/ steel panther rock! \m/
Tap to rate this tab
# A B C D E F G H I J K L M N O P Q R S T U V W X Y Z