Song name
# A B C D E F G H I J K L M N O P Q R S T U V W X Y Z

Steel Panther - Asian Hooker tab

|--11--14--12--14--11--14--12--14----------------------------------|
|----------------------------------10--13--12--13--10--13--12--13--|
|------------------------------------------------------------------|
|------------------------------------------------------------------|
|------------------------------------------------------------------|
|------------------------------------------------------------------|


|------------------------------------------------------------|
|--8--12--10--12--8--12--10--12--7--10--8--10--7--10--8--10--|
|------------------------------------------------------------|
|------------------------------------------------------------|
|------------------------------------------------------------|
|------------------------------------------------------------|

|----------------------------T------------------------T----------------------T--------------------|
|--5(h)7(p)5(p)0(h)5(h)7(h)--12(p)7(p)5(p)0(h)5(h)7--12(p)7(p)5(p)0(h)5(h)7-12(p)7(p)5(p)0(h)5(h)7|
|-------------------------------------------------------------------------------------------------|
|-------------------------------------------------------------------------------------------------|
|-------------------------------------------------------------------------------------------------|
|-------------------------------------------------------------------------------------------------|

|---T------------------------T----------------------T-----------------------|
|--12-(p)8(p)5(p)0(h)5(h)8--12-(p)8(p)5(p)0(h)5(h)8-12(p)8(p)5(p)0(h)5(h)8--|
|---------------------------------------------------------------------------|
|---------------------------------------------------------------------------|
|---------------------------------------------------------------------------|
|---------------------------------------------------------------------------|

|--------------------------------------------------------------------------------12--13--|
|--8--9--11--9--9--11--12--11--11--12--14--16--14--12h14p12--11--12--14--12--14----------|
|----------------------------------------------------------------------------------------|
|----------------------------------------------------------------------------------------|
|----------------------------------------------------------------------------------------|
|----------------------------------------------------------------------------------------|

|---------------------------------------------------15h18(b)p15------15--18--19--|
|--14h17(b)p14------14------17h20(b)p17------17------------------17--------------|
|--------------15--------15--------------18------18------------------------------|
|--------------------------------------------------------------------------------|
|--------------------------------------------------------------------------------|
|--------------------------------------------------------------------------------|

|--20--19--17--17h19p17--15--17--19--17--15--17--15h17p15--14--15--17--15--14--11--12--11---------|
|------------------------------------------------------------------------------------------12-----|
|----------------------------------------------------------------------------------------------11-|
|-------------------------------------------------------------------------------------------------|
|-------------------------------------------------------------------------------------------------|
|-------------------------------------------------------------------------------------------------|

|--12--15--14--15--12--15--14--15----------------------------------|
|----------------------------------10--13--12--13--10--13--12--13--|
|------------------------------------------------------------------|
|------------------------------------------------------------------|
|------------------------------------------------------------------|
|------------------------------------------------------------------|

|--10--14--12--14--10--14--12--14--------------------------------|
|----------------------------------8--12--10--12--8--12--10--12--|
|----------------------------------------------------------------|
|----------------------------------------------------------------|
|----------------------------------------------------------------|
|----------------------------------------------------------------|


|--8--12--10--12--8--12--10--12-------------------|
|--------------------------------7--11--9--11--7--|
|-------------------------------------------------|
|-------------------------------------------------|
|-------------------------------------------------|
|-------------------------------------------------|


|---T------------|  X2
|--12p7p4p0h4h7--|
|----------------|
|----------------|
|----------------|
|----------------|

|---T------------|  X2
|--10p7p4p0h4h7--|
|----------------|
|----------------|
|----------------|
|----------------|

|---T---------------|  X2
|--8p7p4p0h4h7------|
|-------------------|
|-------------------|
|-------------------|
|-------------------|
Tap to rate this tab
# A B C D E F G H I J K L M N O P Q R S T U V W X Y Z