Song name
# A B C D E F G H I J K L M N O P Q R S T U V W X Y Z

Steel Panther - Death To All But Metal tab

h: Hammer On
p: Pull Off
t: Tap
/: Slide
.: Palm Mute
*: Harmonic

Note: There are a lot of backing solos in this song that I [cant/dont have time to/dont 
to] tab out. lol. BUT I DO HAVE THE MAIN SOLO!! lol

-==INTRO========


|-------------|
|-------------|
|----------5--|
|----------5--|
|--0-0-0-0-3--|  x 4
|-------------|
PM.......

|-------------------------|
|-------------------------|
|----------5-----7-----8--|
|----------5-----7-----8--|
|--0-0-0-0-3-0-0-5-0-0-6--|
|-------------------------|
PM........   ...   ...

(This part is the main riff)
|-------------------------|---------------------|
|-------------------------|---------------------|
|-------------------------|---------------------|
|-------------------------|---------------------|
|--0---0-3-5-6-5-3----x3--|----5---5-6-7-6-5-3--|  Play twice
|--0---0-3-5-6-5-3--------|----5---5-6-7-6-5-3--|


-==VERSE========


(Same as the main riff, just on the E string only)
|-------------------------|---------------------|
|-------------------------|---------------------|
|-------------------------|---------------------|
|-------------------------|---------------------|
|---------------------x3--|---------------------|  x 2
|--0---0-3-5-6-5-3--------|----5---5-6-7-6-5-3--|


-==BRIDGE========


(Let each chord ring- Listen to the song, lol)
|-----------------|
|-----------------|
|----------5---7--|
|--2---5---5---7--|
|--2---5---3---5--|
|--0---3----------|

While that is playing, a second guitar is playing a variation of Sweet Child of Mine by 
n' Roses in the background:

|--------------15--14-----|
|-----14-13-12---12---12--|
|--12---------------------|
|-------------------------|
|-------------------------|  x 4
|-------------------------|


-==CHORUS========


|-----------|----------------|
|-----------|----------------|
|-----------|----------5-----|
|--8---7-5--|----------5-----|
|--8---7-5--|--0-0-0-0-3--x4-|  x 2
|--6---5-3--|----------------|
               PM.....

|-----------|------------------------|
|-----------|------------------------|
|-----------|---------5-----7-----8--|
|--8---7-5--|---------5-----7-----8--|
|--8---7-5--|-0-0-0-0-3-0-0-5-0-0-6--|
|--6---5-3--|------------------------|
              PM.....   ...   ...


-==VERSE========


|-------------------------|---------------------|
|-------------------------|---------------------|
|-------------------------|---------------------|
|-------------------------|---------------------|
|---------------------x3--|---------------------|  x 2
|--0---0-3-5-6-5-3--------|----5---5-6-7-6-5-3--|


-==BRIDGE========


|-----------------|
|-----------------|
|----------5---7--|
|--2---5---5---7--|
|--2---5---3---5--|
|--0---3----------|

or

|--------------15--14-----|
|-----14-13-12---12---12--|
|--12---------------------|
|-------------------------|
|-------------------------|  x 4
|-------------------------|


-==INTERLUDE========


Variation of Metallica's Seek and Destroy:
|-------------------------|
|-------------------------|
|--9----7---7-------------|
|---------9---9-8-7-5-----|
|-------------------------|  x 2
|-------------------------|


-==CHORUS========


|-----------|----------------|
|-----------|----------------|
|-----------|----------5-----|
|--8---7-5--|----------5-----|
|--8---7-5--|--0-0-0-0-3--x4-|  x 2
|--6---5-3--|----------------|
               PM.....

|-----------|------------------------|
|-----------|------------------------|
|-----------|---------5-----7-----8--|
|--8---7-5--|---------5-----7-----8--|
|--8---7-5--|-0-0-0-0-3-0-0-5-0-0-6--|
|--6---5-3--|------------------------|
              PM.....   ...   ...


-==BRIDGE========

Quick interlude:
|---------------|
|---------------|
|---------------|
|--8-7-5-7-5----|
|--6-5-3-5-3-5--|
|------------3--|


|-----------------|
|-----------------|
|----------5---7--|
|--2---5---5---7--|
|--2---5---3---5--|  x 2
|--0---3----------|
"Kill those fucking fuckheads" part.

|-------------|
|-------------|
|-------------|
|--5----8--7--|
|--3----6--5--|
|-------------|


-==SOLO========

Nobody gets this right...

Bendy Part:
|-------------------|
|-------------------|
|--19b-19b-19b-18~~-|
|-------------------|
|-------------------|
|-------------------|

Shredy Part:
|------17h19p17----17------------------------------------------------------|
|-17h20---------20----20p17--20p17-----17----------------------------------|
|--------------------------20-----20p17--20p17---20p17------17----------17~|
|---------------------------------------------19-------19h17--19h17---19---|
|-------------------------------------------------------------------19-----|
|--------------------------------------------------------------------------|

Tappy Part:
|-----------------------------------------------|
|-----t---t---t---t---t---t---t---t---t---t-----|
|--5p0-7p0-8p0-9p0-8p0-7p0-5p0-6p0-7p0-8p0-9/5--|
|-----------------------------------------------|
|-----------------------------------------------|
|-----------------------------------------------|

Another Shredy Part:
|--19b----17------------------------------------------------------------|
|------------20h17-------------20b---17---------17----------------------|
|------------------20h19p17-------------19p17-----19p17-----------------|
|---------------------------19----------------19---------19p17----------|
|--------------------------------------------------------------19b-19b--|
|-----------------------------------------------------------------------|

Backing track for the Solo is the Verse.

-==VERSE========


|-------------------------|---------------------|
|-------------------------|---------------------|
|-------------------------|---------------------|
|-------------------------|---------------------|
|---------------------x3--|---------------------|  x 2
|--0---0-3-5-6-5-3--------|----5---5-6-7-6-5-3--|


-==BRIDGE========


|-----------------|
|-----------------|
|----------5---7--|
|--2---5---5---7--|
|--2---5---3---5--|
|--0---3----------|

or

|--------------15--14-----|
|-----14-13-12---12---12--|
|--12---------------------|
|-------------------------|
|-------------------------|  x 4
|-------------------------|


-==CHORUS========


|-----------|----------------|
|-----------|----------------|
|-----------|----------5-----|
|--8---7-5--|----------5-----|
|--8---7-5--|--0-0-0-0-3--x4-|  x 2
|--6---5-3--|----------------|
               PM.....

|-----------|
|-----------|
|-----------|
|--8---7-5--|
|--8---7-5--| Let the last chord ring---
|--6---5-3--|

|------------|
|------------|
|--------5*--|
|-----7*-----| Backup Guitar doing Natural Harmonics..
|--5*--------|
|------------|

|--------|
|--------|
|--------|
|--5--5--|
|--5--5--| Concert style outro.
|--3--3--|

Have fun! lol
Tap to rate this tab
 
# A B C D E F G H I J K L M N O P Q R S T U V W X Y Z