Song name
# A B C D E F G H I J K L M N O P Q R S T U V W X Y Z

Steel Panther - Hells On Fire tab

Eb----------------------------------------------------|
Bb----------------------------------------------------|
Gb----------------------------------------------------|
Db------------------------2--4--------------------5--2|
Ab------4--4--4--4--4--4--0--2--4--4--4--4--4--4--3--0|
Eb-12/--0--2--0--2--0--2--------0--2--0--2--0--2------|
  slide

Eb--------------------------------------------|
Bb--------------------------------------------|
Gb--------------------------------------------|
Db--------------------2--4---7------------4--3|
Ab--4--4--4--4--4--4--0--2---5 (let ring)-2--1|
Eb--0--2--0--2--0--2--------------------------|
Tap to rate this tab
# A B C D E F G H I J K L M N O P Q R S T U V W X Y Z