Song name
# A B C D E F G H I J K L M N O P Q R S T U V W X Y Z

Steel Panther - Fat Girl That She Blows tab

Fat Girl intro solo

Eb Pentatonic with natural minor notes too.

e|---------------------------------------------------------------|
B|-15-13-12-13-15--------------------------------------12-13-15--|
G|----------------14---16-14-11-12-14------------12-14-----------|
D|------------------------------------12---12-14-----------------|
A|---------------------------------------------------------------|
E|---------------------------------------------------------------|

                                                 Slide to 19
e|----------------12-14-15--17-----------15-17///19--------|
B|------12-13-15---------------15--15-17-------------------|
G|-14------------------------------------------------------|
D|---------------------------------------------------------|
A|---------------------------------------------------------|
E|---------------------------------------------------------|



My first short tab, rate!

By Oo kraM oO
Tap to rate this tab
 
# A B C D E F G H I J K L M N O P Q R S T U V W X Y Z