Steel Panther - Party All Day tab

Steel Panther

Party All Day solo


e------------------------------------|-------12-13---------------------------|
b------------------------------------|----15------13-------------------------|
g----------17b19-17~-15-15s14-14-14~-|-14-----------14-15-14--17~------------|
d-12-14-15---------------------------|----------------------15---------------|
a------------------------------------|---------------------------------------|
E------------------------------------|---------------------------------------|

e------------------------------------|-------12-13---------------------------|
b------------------------------------|----15------13-------------------------|
g---------17b19-17~-15-15s14-14-14~--|-14-----------14-15-14--12b14r12p10----|
d-12-14-15---------------------------|----------------------15------------12-|
a------------------------------------|---------------------------------------|
E------------------------------------|---------------------------------------|

Tabbed by P.West
Tap to rate this tab
 
# A B C D E F G H I J K L M N O P Q R S T U V W X Y Z