Steel Panther - Girl From Oklahoma tab

Words and Music by Steel Panther
Arranged by Steel Panther
Tabbed by Cerb

First tab, noticed the other one here was incomplete so I made my own.
Hope its useful, feel the steel! 



e|-2-3-5-3-2-3-5-3-2p0-----------3-2--0--------------------------3|
B|-3-------------------3-----0h1--------3h5p3p0-------------------|
G|-2--------------------------------------------2h4p2p0-0--0h2/4--|
D|-0--------------------------------------------------------------|
A|----------------------------------------------------------------|
E|----------------------------------------------------------------|

e|--------------------------------------7h8h10------7h8h10/12-10--|
B|----------------------/5-3-5----7h8h10------7h8h10--------------|
G|4p2p0---0-------------------------------------------------------|
D|------4---4-2-0-2-0---------------------------------------------|
A|----------------------------------------------------------------|
E|----------------------------------------------------------------|

e|/7-/10-8------------------------------------------------------------------|
B|----------10b-8---8-8-------------------8---------------------------------|
G|----------------9-----9-7-9---------4/7-----0----0---0----0-------<12>-<5>|
D|------------------------------2h4/5--------/10p9-7\5-/9p7-5----<12>--<5>--|
A|--------------------------------------------------------------------------|
E|--------------------------------------------------------------------------|
Tap to rate this tab
 
# A B C D E F G H I J K L M N O P Q R S T U V W X Y Z