Steel Panther - Eatin Aint Cheatin tab

Intro Rythm

Eb|-----------------|-------------|-----------------|-------------|
Bb|-----7-7-7-8---6-|-5-----5---5-|-----7-----7---4-|-3---6--5--6-|
Gb|-----7-7-7-7---5-|-5-----5---5-|-----7-----7---3-|-3---5--5--5-|
Db|-----7-7-7-7---5-|-5-----5---5-|-----7-----7---3-|-3---5--5--5-|
Ab|-5-5-5-5-5-5---3-|-3-3-3-3-3-3-|-5-5-5-5-5-5-5---|-------------|
Eb|-----------------|-------------|-----------------|-------------|

Eb|-----------------|-------------------|-----------------|-------------|
Bb|-----7-7-7-8---6-|-5---------5-----5-|-----7-----7---4-|-3---6--5--6-|
Gb|-----7-7-7-7---5-|-5---------5-----5-|-----7-----7---3-|-3---5--5--5-|
Db|-----7-7-7-7---5-|-5---------5-----5-|-----7-----7---3-|-3---5--5--5-|
Ab|-5-5-5-5-5-5---3-|-3-3-3-3-3-3-3-3-3-|-5-5-5-5-5-5-5---|-------------|
Eb|-----------------|-------------------|-----------------|-------------|

Intro solo

Eb|-14^--14-12-14-|-14^--14-12-14---12-11-12--11--9-|
Bb|---------------|---------------------------------|
Gb|---------------|---------------------------------|
Db|---------------|---------------------------------|
Ab|---------------|---------------------------------|
Eb|---------------|---------------------------------|

Eb|-14^--14-12-14---12-11-12|-14^--14-12-14---12-11-17^--|
Bb|-------------------------|----------------------------|
Gb|-------------------------|----------------------------|
Db|-------------------------|----------------------------|
Ab|-------------------------|----------------------------|
Eb|-------------------------|----------------------------|

^=Full bend
Tap to rate this tab
 
# A B C D E F G H I J K L M N O P Q R S T U V W X Y Z