Song name
# A B C D E F G H I J K L M N O P Q R S T U V W X Y Z

Steel Panther - Weenie Ride tab

-------------------------------------------------------------------------------
                             Weenie Ride - Steel Panther
-------------------------------------------------------------------------------
Tabbed by: Kiaran Jay

Tuning: Standard (EADGBE)

As there's no guitar in this song except for the solo, I'm only gonna do the solo.
It's pretty easy, but making it clean can be tricky.

Enjoy!

e|---------------------------------------------------------------------------|
B|---------------------------------------------------------------------------|
G|----------------------------5--7--9-----7----------------------------------|
D|----7----------------7---9--------------------10h12--10p9--10p9-------9----|
A|-----------------------------------------------------------------12--------|
E|---------------------------------------------------------------------------|

                Pm-------------------------------------
e|---------------------------------------------------------------------------|
B|---------------------------------------------------------------------------|
G|------------------9------9-----9------9------------------------------------|
D|--------------12-----10-----9--------------------9--10--9tr~---------------|
A|--11------------------------------12-----11--12----------------------------|
E|-------12------------------------------------------------------------------|


e|15--13--12--13-----------------------------8---------------------8---------|
B|---------------15b17br15----12----------------10--------------------10-----|
G|--------------------------------------------------9----------9-------------|
D|-----------------------------------------------------10--------------------|
A|---------------------------------------------------------12----------------|
E|---------------------------------------------------------------------------|


e|--7------------------7-----5-----------------5-----4-----------------------|
B|-----8------------------8-----6-----------------6-----5--------------------|
G|--------7---------7--------------5--------5--------------4-----------------|
D|-----------9------------------------7-----------------------6--------------|
A|--------------10-----------------------8-----------------------7~----------|
E|---------------------------------------------------------------------------|


e|----------------------------------19b20-19b20-19b20-19b20------17h19p17\14-|
B|-----------17~--------------20~--------------------------------------------|
G|--14~--------------16~-----------------------------------------------------|
D|---------------------------------------------------------------------------|
A|---------------------------------------------------------------------------|
E|---------------------------------------------------------------------------|


e|--17p14--------------------------------------------------------------------|
B|---------15----------------------------------------------------------------|
G|-------------14\11---------------------------------------------------------|
D|--------------------14--12-------------------------------------------------|
A|----------------------------13~--------------------------------------------|
E|---------------------------------------------------------------------------|


************************************

| /   slide up
| \   slide down
| h   hammer-on
| p   pull-off
| ~   vibrato
| +   harmonic
| x   Mute note
| Pm  Palm Mute
| b   Bend
| pb  Pre-bend
| br  Bend release
| pbr Pre-bend release
| brb Bend release bend
| tr~  Trill

************************************
Tap to rate this tab
# A B C D E F G H I J K L M N O P Q R S T U V W X Y Z