Song name
# A B C D E F G H I J K L M N O P Q R S T U V W X Y Z

Steel Panther - Pussywhipped tab

Artist: Steel Panther
Song: Pussywhipped
Album: All You Can Eat
Tuning: Drop C#

Tabbed by Deviliumrei




D#||-------------------------------------|
A#||-------------------------------------|
F#||--2h3p2p0---------0---0---0----------| Intro
C#||----------3-2-0-------------3-2-0----| 9x
G#||----------------1---2---3------------|
C#||-------------------------------------|

                                            
 
|-------------------------------------------------------|
|-------------------------------------------------------|
|-------------------------------------------------------|Main Riff/Chorus  
|------7p0-8p0-7p0-6p0-7p0-6-5---------5----------------|
|--0-0-------------------------8---7-8---8-7------------|
|--0-0---------------------------8-----------8-7~-------|


   
|-----------------------------------------------------|
|-----------------------------------------------------|
|-----------------------------------------------------|  Pre verse riff
|-----------------------------------------------------|  x2
|--0-0--------0-0--------0-0--------0-0---------------|
|--0-0-3-5-7--0-0-3-5-7--0-0-3-5-7--0-0-3-5-7-5-3-----|


     
|-------------------------|
|-------------------------|
|----------------8--------| 
|----------------8--------|
|--3----3-3-3-3--6--------|
|--3----3-3-3-3-----------|

|----------------------------------------------------|
|----------------------------------------------------|
|----------------------------------------------------|  Pre verse riff
|----------------------------------------------------| 
|--0-0--------0-0--------0-0--------0-0--------------|
|--0-0-3-5-7--0-0-3-5-7--0-0-3-5-7--0-0-3-5-7-5-3----|

|-------------------------|
|-------------------------| 
|----------------8--------| Verse 1 
|----------------8--------|
|--3----3-3-3-3--6--------|
|--3----3-3-3-3-----------|

|-----------------------------------------------------|
|-----------------------------------------------------|
|-----------------------------------------------------|  Pre verse riff
|-----------------------------------------------------| 
|--0-0--------0-0--------0-0--------0-0---------------|
|--0-0-3-5-7--0-0-3-5-7--0-0-3-5-7--0-0-3-5-7-5-3-----|

   
|--3--------------------------------------------|
|--3--------------------------------------------|
|--0--5----------3--8--5------------------------| Pre Chorus
|-----5----------3--8--5--5-5-3-5-5-5-3-5-5-3-5-|
|-----3--3-3-3-3-1--6--3------------------------|
|--------3-3-3-3--------------------------------|


|---------------------------------------------------------|
|---------------------------------------------------------|
|---------------------------------------------------------|  Chorus
|------7p0-8p0-7p0-6p0-7p0-6-5---------5------------------|    x2
|--0-0-------------------------8---7-8---8-7-------0-0----|
|--0-0---------------------------8-----------8-7~--0-0----|

                                                   PM----------------|
|------------------------------------------------------------------------|
|------------------------------------------------------------------------|
|----------------------------------------AH0---0---0--3-4-5-4-------5----| 
|-----------------------------------AH2b3---2b3-2b3-----------5-4-3---3--| 
|--0-0--------0-0--------0-0---------------------------------------------|
|--0-0-3-5-7--0-0-3-5-7--0-0-3-5-7---------------------------------------|


|-------------------------|
|-------------------------|
|----------------8--------| 
|----------------8--------|
|--3----3-3-3-3--6--------|
|--3----3-3-3-3-----------|

|-----------------------------------------------------|
|-----------------------------------------------------|
|-----------------------------------------------------|  Pre verse riff
|-----------------------------------------------------| 
|--0-0--------0-0--------0-0--------0-0---------------|
|--0-0-3-5-7--0-0-3-5-7--0-0-3-5-7--0-0-3-5-7-5-3-----|

|-------------------------|
|-------------------------| 
|----------------8--------| Verse 2
|----------------8--------|
|--3----3-3-3-3--6--------|
|--3----3-3-3-3-----------|

|-----------------------------------------------------|
|-----------------------------------------------------|
|-----------------------------------------------------|  
|-----------------------------------------------------| 
|--0-0--------0-0--------0-0--------0-0---------------|
|--0-0-3-5-7--0-0-3-5-7--0-0-3-5-7--0-0-3-5-7-5-3-----|

    
|--3--------------------------------------------|
|--3--------------------------------------------|
|--0--5----------3--8--5------------------------| Pre Chorus
|-----5----------3--8--5--5-5-3-5-5-5-3-5-5-3-5-|
|-----3--3-3-3-3-1--6--3------------------------|
|--------3-3-3-3--------------------------------|


|----------------------------------------------------------|
|----------------------------------------------------------|
|----------------------------------------------------------|  Chorus
|------7p0-8p0-7p0-6p0-7p0-6-5---------5-------------------|    x2
|--0-0-------------------------8---7-8---8-7-------0-0-----|
|--0-0---------------------------8-----------8-7~--0-0-----|  

              Pm---------|               PM------------------|
|--------------------------------------------------------------|
|--------------------------------------------------------------|
|--------------------------------------------------------------|  2x
|-------4-5-4--3-4-5-4-3---5-5-------4-5-4---------------------|
|--0-0-------------------5-3-3--0-0---------0-2-3-2-0----------|
|--0-0--------------------------0-0-------------------5-4-2-5--|


    
|----------------------------------------|
|----------------------------------------|
|--2-------------------------------------|  4x
|--2---7---8---7---5---7---5-------------|
|--0-0---0---0---0---0---0---8-7---------|
|----------------------------------------|


    
|----------------------------------|---------------------------------|
|----------------------------------|---------------------------------|
|----------------------------------|---------------------------------|
|----------------------------------|---------------------------------|
|--8---7---5---7---8---7---5---7---|-8---7---5---7---8---7---5---7---|
|----8---8---8---8---8---8---8-----|---9---9---9---9---9---9---9-----|


     
|----------------------------------|----------------------------------|
|----------------------------------|----------------------------------|
|----------------------------------|----------------------------------|
|----------------------------------|----------------------------------|
|-8---7--------7---8---7---------7-|-8--7--------7---8---7----------7-|
|---10-10-12-10--10--10--10-12-10--|--11-11-12-11--11--11--11-12-11---|


             PM-------|                  PM-----------------|
|---------------------------------------------------------------|
|---------------------------------------------------------------|
|---------------------------------------------------------------|  
|-------4-5-4--3-4-5-4-3---5-5-------4-5-4----------------------|
|--0-0-------------------5-3-3--0-0---------0-2-3-2-0-----------|
|--0-0--------------------------0-0-------------------5-4-2-5---|


                             
     
|------------|
|------------| 
|------------| 
|---3--5-----|
|-0-3--5-----|
|-0-3--5-----|

                                                     
Solo-> 
                                                                             
|--17-16-17-13-16----13-----------------------------------------------|
|-----------------17----15-17-18-15-17b18-15h17p15----15-17-----------|
|--------------------------------------------------18-------18b19-----|
|---------------------------------------------------------------------|
|---------------------------------------------------------------------|
|---------------------------------------------------------------------|

|--------------------------------|
|-------15-------15--------------|
|-18b19----18b19----pb18br19--14-|
|--------------------------------|
|--------------------------------|
|--------------------------------|

|---------------------------------------------------------------------|
|---------------------------------------------------------------------|
|--14--14-14-12-12-14-14-15-15-14-12----------------------------------|
|------------------------------------15-14-12-------------------------|
|---------------------------------------------13-12-10----------------|
|------------------------------------------------------15-14-12-11~---|


    
|-------------------|---------------------------|
|-------------------|---------15-17-18-17-18-15-|
|-------------------|------14-------------------|
|--------------12---|----x----------------------|
|-----------12------|--x------------------------|
|--12-12-15---------|---------------------------|


  
|---------------------------14s17-17-|
|------------------------15----------|
|--18b19bp18-14----14-18-------------|
|---------------14-------------------|
|------------------------------------|
|------------------------------------|

|--17b18-17----------15-17-18----------15-17-18-20-20b22-|
|-----------15-17-18----------15-17-18-------------------|
|--------------------------------------------------------|
|--------------------------------------------------------|
|--------------------------------------------------------|
|--------------------------------------------------------|

                                                              AH
|----------------------------------|------------------------------|       
|----------------------------------|------------------------------|
|----------------------------------|------------------------------|
|----------------------------------|------------------------------|
|-----------------3---4-----3------|-----------------3---4-----6--|
|-0-0-2-0-3-0-0-0---0---0-0---0-4--|-0-0-2-0-3-0-0-0---0---0-0----|                                                

                                                               AH
|----------------------------------|-------------------------------|        
|----------------------------------|-------------------------------|
|----------------------------------|-------------------------------|
|----------------------------------|-------------------------------|
|-----------------3---4-----3------|-----------------3---4-----6b8-|
|-0-0-2-0-3-0-0-0---0---0-0---0-4--|-0-0-2-0-3-0-0-0---0---0-0-----|  

                                                              AH
|----------------------------------|-------------------------------|        
|----------------------------------|-------------------------------|
|----------------------------------|-------------------------------|
|----------------------------------|-------------------------------|
|-----------------3---4-----3------|-----------------3---4-----6---|
|-0-0-2-0-3-0-0-0---0---0-0---0-4--|-0-0-2-0-3-0-0-0---0---0-0-----|  

                                                        Natural harmonics
|----------------------------------|-------------------------------------|
|----------------------------------|---------------------[7]-------------|
|----------------------------------|-----------------------[7]---[7]-----|
|----------------------------------|-----------------5---6---[7]---[7]---|
|-----------------3---4-----3------|-----------------3---4-----------[7]-|
|-0-0-2-0-3-0-0-0---0---0-0---0-4--|-0-0-2-0-3-0-0-0---0-----------------|  


|--3--------------------------------------------|
|--3--------------------------------------------|
|--0--5----------3--8--5------------------------| Pre Chorus
|-----5----------3--8--5--5-5-3-5-5-5-3-5-5-3-5-|
|-----3--3-3-3-3-1--6--3------------------------|
|--------3-3-3-3--------------------------------|

|---------------------------------------------------------|
|---------------------------------------------------------|
|---------------------------------------------------------|  Chorus
|-----7p0-8p0-7p0-6p0-7p0-6-5---------5-------------------|    x4
|-0-0-------------------------8---7-8---8-7-------0-0-----|
|-0-0---------------------------8-----------8-7~--0-0-----|  

|---------------------|
|---------------------|
|---------------------|
|---------------------|
|-0-0-0-0-0-0-0-------|
|-0-0-0-0-0-0-0-------|


Tablature Legend
----------------
L - tied note
x - dead note
g - grace note
(n) - ghost note
> - accentuded note
NH - natural harmonic
AH - artificial harmonic
TH - tapped harmonic
SH - semi harmonic
PH - pitch harmonic
h - hammer on
p - pull off
b - bend
br - bendRelease
pb - preBend
pbr - preBendRelease
brb - bendReleaseBend
\n/ - tremolo bar dip
\n - tremolo bar dive
-/n - tremolo bar Release up
/n\ - tremolo bar inverted dip
/n - tremolo bar return
-\n - tremolo bar Release down
S - shift slide
s - legato slide
/ -  slide into from below or out of upwards
\ -  slide into from above or out of downwards
~ - vibrato
W - wide vibrato
tr - trill
TP - tremolo picking
T - tapping
S - slap
P - pop
< - fade in
^ - brush up
v - brush down
Tap to rate this tab
# A B C D E F G H I J K L M N O P Q R S T U V W X Y Z