Song name
# A B C D E F G H I J K L M N O P Q R S T U V W X Y Z

Steel Pillow - Shit In Your Coffee tab

Help us improve GuitareTab! Take a short survey!
written by Barrett Moore
performed by Steel Pillow
tabbed by Barrett Moore

riff 1
1-----------------------------------------------------------
2-----------------------------------------------------------
3-----------------------------------------------------------
4-----------7-77-xx-------5-55-xx---------------------------
5-(0)-3^5-0-5-55-xx-3^2-0-3-33-xx---------------------------
6-----------------------------------------------------------

fill 1
1-----------------------------------------------------------
2-----------------------------------------------------------
3-----------------------------------------------------------
4---------777-555--------2---------------------------------
5-0-3^5-0-555-333-555-77-2---------------------------------
6-----------------333-55-0---------------------------------

riff 2
1-----------------------------------------------------------
2-----------------------------------------------------------
3-----------------------------------------------------------
4-2-2-------2-22--------------------------------------------
5-2-2-------2-22-55-xx--------------------------------------
6-0-0-2^3-0-0-00-33-xx--------------------------------------

fill 2
1-----------------------------------------------------------
2-----------------------------------------------------------
3-----------------------------------------------------------
4-----------------------------------------------------------
5-----------------------------------------------------------
6-0-2^3-0-5^3-0---------------------------------------------

riff 3
G1
1-------------------------------------------------
2-------------------------------------------------
3-------------------------------------------------
4-7-7-7-7-7-7-7-7-5-5-5-5-5-5-5-5-9-9-9-9-9-9-9-9-
5-5-5-5-5-5-5-5-5-3-3-3-3-3-3-3-3-7-7-7-7-7-7-7-7-
6-------------------------------------------------
G2
1-------------------------------------------------
2-1111p10-1111p10-1111p10-1111p10-1111p10-1111p10-
3-1212----1212----1212----1212----1212----1212----
4-------------------------------------------------
5-------------------------------------------------
6-------------------------------------------------

fill 3
1----------------
2----------------
3----------------
4-777-5^7-5^7-77-
5-555-3^5-3^5-55-
6----------------

riff 4
G1
1-------------------------------------------------
2-------------------------------------------------
3-------------------------------------------------
4-7-7-7-7-7-7-7-7-5-5-5-5-5-5-5-5-9-9-9-9-9-9-9-9-
5-5-5-5-5-5-5-5-5-3-3-3-3-3-3-3-3-7-7-7-7-7-7-7-7-
6-------------------------------------------------
G2
1-----2times-----/----2times-----/---2times-------
2---1011-10h11p10/--1011-10h11p10/--1011-10h11p10-
3-12-------------/12-------------/12--------------
4----------------/---------------/----------------
5----------------/---------------/----------------
6----------------/---------------/----------------

order:going down
riff1 riff2 riff1(slow)
fill1 fill2 then make up a lick to finish up the song
riff2 riff3 
fill1 fill3 
riff1 riff4 
fill1 fill3
Related for Shit In Your Coffee tab