Song name
# A B C D E F G H I J K L M N O P Q R S T U V W X Y Z

Steel Pillow - Assfuzz tab

E-----------------------------------------------------------
B-----------------------------------------------------------
G--9-9-x-9-9--999\---7-7-x-7-7--777-------------------------
D--9-9-x-9-9--999\---7-7-x-7-7--777--7-7-x-7-7--777\--------
A--7-7-x-7-7--777\---5-5-x-5-5--555--7-7-x-7-7--777\--------
E------------------------------------5-5-x-5-5--555\--------

E-----------------------------------------------------------
B-----------------------------------------------------------
G-----------------------------------------------------------
D-9-9-x-9-9--999--------------------------------------------
A-9-9-x-9-9--999--------------------------------------------
E-7-7-x-7-7--777-------------------------------------------


Order:
repeat until you can figure the rest of the song out
Tap to rate this tab
# A B C D E F G H I J K L M N O P Q R S T U V W X Y Z