Song name
# A B C D E F G H I J K L M N O P Q R S T U V W X Y Z

Steel Pole Bath Tub - Train To Miami tab

Artist: Steel Pole Bath Tub
Song: Train To Miami
Official website: http://steelpolebathtub.com/


e\--------------------------------------------------------|
B\--------------------------------------------------------|
G\--------------------------------------------------------|
A\--4--4444--4--4--4444--4--4--7--7777--7--7--7777--7--7--|
D\--4--4444--4--4--2222--4--4--7--7777--7--7--7777--7--7--|
E\--2--2222--2--2--2222--2--2--5--5555--5--5--5555--5--5--|

e\--------------------------------------------------------|
B\--------------------------------------------------------|
G\--------------------------------------------------------|
A\--6--6666--6--6--9--9999-7-7777-10101010----------------|
D\--6--6666--6--6--9--9999-7-7777-10101010----------------|
E\--4--4444--4--4--7--7777-5-5555-8-8-8-8-----------------|
Tap to rate this tab
# A B C D E F G H I J K L M N O P Q R S T U V W X Y Z