Song name
# A B C D E F G H I J K L M N O P Q R S T U V W X Y Z

Steel Pulse - Roller Skates tab

-----------------------------------------------------------------------------
                          Roller Skates - Steel Pulse
-----------------------------------------------------------------------------
Tabbed by: J.Casquejo
Email: geehanski@yahoo.com

This song is off the album Earth Crisis by Steel Pulse. Also covered by Cas
Haley and Josh Heinrichs on their collaboration album Favorites. This tab is
sort of a mix of both versions. Enjoy. 

Chords used: Am, Dm, G, E7#9 (Cas Haley uses Em instead)

Intro:
    Am     Dm     E7#9   G
e|--5------5-------------3--------------------------------------------------|
B|--5------6------8------3--------------------------------------------------|
G|--5------7------7------4--------------------------------------------------|
D|--7------7------6------5--------------------------------------------------|
A|--7------5------7------5--------------------------------------------------|
E|--5--------------------3--------------------------------------------------|

Rhythm: Played throughout
    Am     Dm     E7#9
e|--5------5----------------------------------------------------------------|
B|--5------6------8---------------------------------------------------------|
G|--5------7------7---------------------------------------------------------|
D|--7-x4---7-x2---6-x2------------------------------------------------------|
A|--7------5------7---------------------------------------------------------|
E|--5-----------------------------------------------------------------------|

Lead Riff: (Can also be played an octave lower by starting with an A on the
low E string and so forth)
e|--------------------------------------------------------------------------|
B|--------------------------------------------------------------------------|
G|------------------------------------888/10--/10-8----8--------------------|
D|---------7-7/9--9/10-9-7-5-5/7--7/9---------------10---10-9-9/10-9-7-7/9--|
A|--7-9-10------------------------------------------------------------------|
E|--------------------------------------------------------------------------|

Solo (played fast): (This is from a video on youtube of them playing live)
e|--------------------------------------------------------------------------|
B|----------------8-8-7-7-10-10-8-8------------------8-8-7-7-10-10-8--------|
G|------5-7-7/9-9--------------------------5-7-7/9-9------------------------|
D|--5/7--------------------------------5/7----------------------------------|
A|--------------------------------------------------------------------------|
E|--------------------------------------------------------------------------|

e|--------------------------------------------------------------------------|
B|-----------------8-8-7-7-10-10-8-8----8-8-7-------------------------------|
G|------5-7-7/9-9------------------------------9-9-7--7-7-5-5---------------|
D|--5/7---------------------------------------------------------------------|
A|--------------------------------------------------------------------------|
E|--------------------------------------------------------------------------|

e|----------------------------------------------------7----3----5-----------|
B|--8-8-7--------------------8-8-7--------------------7----3----7-----------|
G|----------------------------------9-9-7--7-7-5-5-4--7----5----7-----------|
D|---------9-9-7--7-7-5-5-----------------------------9----6----7-----------|
A|----------------------------------------------------9---------5-----------|
E|----------------------------------------------------7----3----------------|


************************************

| /   slide up

************************************
Tap to rate this tab
# A B C D E F G H I J K L M N O P Q R S T U V W X Y Z