Song name
# A B C D E F G H I J K L M N O P Q R S T U V W X Y Z

Steel Train - Night Falls tab

tabbed by

-Fphilx-
Email: Krazyelmo22@cfl.rr.com

Intro:

E -----------------------------------------------------------------------------------------------|
B -----------------------------------------------------------------------------------------------|
G -----4-----1h2h1-----------4----------4--------------------------------------------------------|
D -----2-----2-------------2---2-2h4h2-----2------4---------4--4--4--4--4----2h4h2--2h1h2--------|
A --0-----0--------0----------------------------3------3-------1-----1-----0---------------------|
E -----------------------4--------------------4------4---4---------------------------------------|

E --------------------------------------------------------------------||
B --------------------------------------------------------------------||
G ----4----1h2h1h2h1------------4----------4--------------------------||
D ----2----2----------2-------2---2-2h4h2-----2------4---------4--4---||
A --0---0---------------0--------------------------3------3-------1---||
E --------------------------4--------------------4------4---4---------||

1st Verse: (Note: It combines straight through from the intro.. There is no pause)

E --------------------------*7*-------------------------------0---------0-----------|
B --------------------------*7*----3--------5-5-------------------------------------|
G ------------------------------------------2-2-----1h2h1h2h1---1-1h2h1---1h2h1-----|
D --4---4-----2/1/2-----------------------------------------------------------------|
A ----1----0----------------------------0--------0-------------------------------0--|
E ---------------------0-----------0------------------------------------------------|

 ^^Time has shown its face..

E -----------------------------------------------------------------------------------------------|
B ---------------------------------------------------8--8--8-------------------------------------|
G ---------6-----6---6-6-----6----6-6-----6---6-----6---6--6h7h6-----4-----4------4-----4--------|
D ---------6-----6---6-6-----6----6-6-----6---7----7----7--7---------2-----2------2---2--2-------|
A --7/4--4---4-4---3-----3-3------------------0---------0--0-------------------0-----0----0------|
E ------------------------------7-----7-7--------------------------3---3-3---3-------------------|

E ----------------------------0-----0h2h0--------0---2--0----------------------------------------|
B -------------3------3---------0-------------0----0------0--------------------------------------|
G ----1----1------1-----1---------1-------1-----------------1----4-----4-----4-----4-------1---1-|
D ----2----2---2----2--------------------------------------------2-----2-----2---2--2------2---2-|
A ------------------------0-0----------------------------------------------0----0----0-----------|
E --0----0-----------------------------------------------------3---3-3---3---------------0---0---|

E ------------------------------------------------||
B --3----------3-----------3--------3--------3----||
G --------1-----------1---------1-----1---1-------|| Cancer calls.... (hold that last chord)
D --2-------2--2---------2--------2-----2----2----||
A ------------------------------------------------||
E ------------------------------------------------||


Intro Riff (x1)

2nd Verse: (Note: Only minor changes in the beginning)

E --------------------------*7*-------------------------------0---------0----------0-------------|
B --------------------------*7*----3--------5-5--------------------------------------------------|
G ------------------------------------------2-2-----1h2h1h2h1---1-1h2h1---1h2h1------------------|
D --4---4-----2/4/2------------------------------------------------------------------------------|
A ----1----0-----------------------------0-------0-----------------------------------------------|
E -------------------0-------------0-------------------------------------------------------------|

 ^^Dancing on the seems..

E -----------------------------------------------------------------------------------------------|
B -------------------------------------------------8--8-7h8h7------------------------------------|
G ---------6-----6---6-6-----6----6-6-----6---6---6---6-6----------4-----4-------4-----4---------|
D ---------6-----6---6-6-----6----6-6-----6---7--7----7-7----------2-----2-------2---2--2--------|
A --7/4--4---4-4---3-----3-3------------------0-------0-0---------------------0-----0----0-------|
E ------------------------------7-----7-7------------------------3---3-3---3---------------------|

E ----------------------------0-----0h2h0--------0---2--0----------0-0-2-2-----5-5-5-5-----------|
B -------------3------3---------0-------------0----0------0--------2-2-2-2-----7-7-7-7-----------|
G ----1----1------1-----1---------1-------1-----------------1------1-1-2-2-----6-6-6-6-----------|
D ----2----2---2----2----------------------------------------------------------------------------|
A ------------------------0-0--------------------------------------------------------------------|
E --0----0---------------------------------------------------------------------------------------|

							^^Take these wings and learn to fly..

E -----------------------------------------------------------------||
B -----------------------------------------------------------------||
G ------7--6h7h6-----6---(7)--------------6--(6)-------6-----------||
D ----7------------7-----(7)--------------7--(7)-------7--(hold)---||
A --5------5-----5-------(5)-----------0-----(0)-------0-----------||
E -----------------------------------------------------------------||

    ^^ Watch on me just like a child...

(^^play around in these 2 chords (577) and (076) and hold that last chord.)


E ----------------------------||
B ----------------------------||
G ----4-----4-----4-----4-----||   This riff 2x
D ----2-----2-----2---2--2----||
A --------------0----0----0---||
E --3---3-3---3---------------||

E -------------------------------------------------------------||
B --------------3---------3-----------3-------3--------3-------||
G ----1---1----------1-----------1--------1-----1---1---(hold)-||
D ----2---2-----2------2--2---------2-------2-----2----2-------||
A -------------------------------------------------------------||
E --0---0------------------------------------------------------||

End with Intro Riff.
Tap to rate this tab
# A B C D E F G H I J K L M N O P Q R S T U V W X Y Z