Song name
# A B C D E F G H I J K L M N O P Q R S T U V W X Y Z

Steel Train - I Will Stay Here tab

Help us improve GuitareTab! Take a short survey!
Artist: Steel Train
Song: I Will Stay Here
Album: Twilight Tales From The Prairies On The Sun
Tabbed by: Dave Kiss


Tuning: Standard (E A D G B e)
.=PALM MUTE
x=MUTE STRING
/=SLIDE
*=HARMONIC
~=LET RING

HELLO!

All chords are played as arpeggios..almost every note rings out
for all of you kiddies holding on on tabs because youre too
lazy to do them, check out http://www.hotfrets.com/tabmakercode.html
tabs only help make better guitarists...lets be nice and share!
this took me a few days to complete but is well worth it....rate!
steel train is great 



  0:00 - 0:05
e|--------------------------------------0-----3p0----0-----|
B|------1-----1-----1-----1-----1---------1----------------|
G|----2-----2-----2-----2-----2-----2------------------2---|
D|--------------------------2-----3---3-----3------3-----0-|
A|--------------2-----3------------------------------------|
E|--2-----3------------------------------------------------|


  0:06 - 0:11
e|--------------------------------------1----0-----|
B|--3-----3-----1-----0-----3-----3-----3----------|
G|----0-----0-----0-----0-----0-----0---0------0---|
D|--------------------------------------0----------|
A|------3-----3-----3-----0-----2-----3-2--2-----0-|
E|-------------------------------------------------|
  "Dreams seem incomplete between your sheets"


  0:12 - 0:16
e|--------3------------------------8---------------------|
B|--1-----------1-----1-----/6-----------5h6p5----\1-----|
G|----0-----0-----0-----0------0-----0---------------0---|
D|-------------------------------------------------------|
A|--1---1-----1-----1-----0------0-----0--------0------0-|
E|-------------------------------------------------------|


  0:16 - 0:22
e|--------------------------------------1-----------|
B|--3-----3-----1-----0-----3-----3-----------3-----|
G|----0-----0-----0-----0-----0-----0-----0-----0---|
D|--------------------------------------------------|
A|--3---3-----3-----3-----0-2---2-----2-----2-----0-|
E|--------------------------------------------------|
  "Ohh I walk this mile to see you child"


  0:23 - 0:29
e|--------3--------------------------------3-|
B|--1-----------1-----1-----/6---5-----1-----|
G|----0-----0-----0-----0----------0---------|
D|-------------------------------------------|
A|--1---1-----1-----1-----0----------0-------|
E|-------------------------------------------|
  "And I will stay here"


  0:30 - 0:34
e|-------------0-----------------1-----3-----1-----|
B|--1----3-----------3-------------1-----1-----1---|
G|--0------0-----0-----0-----2---------------------|
D|--0--0-----0-----0-----0-3---3-----3-----3-----0-|
A|-------------------------------------------------|
E|-------------------------------------------------|
  "And fall in love with you"


  0:35 - 0:40
e|-3-----3-----1-----3-----------3-----------3-----|
B|---1-----1-----1-----1-------1-----------1-------|
G|---------------------------1-----1-----1-----1---|
D|-2---2-----2-----2-----2-1---------1-1---------1-|
A|-------------------------------------------------|
E|-------------------------------------------------|


  0:41 - 0:46
e|--------------------------------------0-------0-----0-----|
B|------1-----1-----1-----1-----1---------1-------------1---|
G|----2-----2-----2-----2-----2-----2-------------2---------|
D|--------------------------2-----3---3-----3-------3-----3-|
A|--------------2-----3-------------------------------------|
E|--2-----3-------------------------------------------------|


  0:47 - 0:52
e|----3-3-3-3-3---3-3---3-3---3-3---3-3-3-3-3-3-3-3-3-|
B|----------------------------------------------------|
G|----0-0-0-0-0---0-0---0-0---0-0---0-0-0-0-0-0-0-0-0-|
D|--------------------------2-----3-------------------|
A|--0-----------2-----3-------------------------------|
E|----------------------------------------------------|


  0:53 - 0:55
e|------------3-----3-----1-----|
B|----1---------------0---------|
G|--------0-----0-----------0---|
D|--3---------------------------|
A|----------------------------0-|
E|------3---3-----3-3---3-------|


  0:56 - 1:01
e|--------------------------------------1----0-----|
B|--3-----3-----1-----0-----3-----3-----3----------|
G|----0-----0-----0-----0-----0-----0---0------0---|
D|--------------------------------------0----------|
A|------3-----3-----3-----0-----2-----3-2--2-----0-|
E|-------------------------------------------------|
  "I want to rest tonight but ohh I fight"


  1:02 - 1:07
e|--------3------------------------8/10-------------------|
B|--1-----------1-----1-----/6------------5h6p5----\1-----|
G|----0-----0-----0-----0------0----------------------0---|
D|--------------------------------------------------------|
A|--1---1-----1-----1-----0------0------0--------0------0-|
E|--------------------------------------------------------|


  1:08 - 1:12
e|--------------------------------------1-----------|
B|--3-----3-----1-----0-----3-----3-----------3-----|
G|----0-----0-----0-----0-----0-----0-----0-----0---|
D|--------------------------------------------------|
A|--3---3-----3-----3-----0-2---2-----2-----2-----0-|
E|--------------------------------------------------|
  "The truth that's in my way that I can't stay."


  1:13 - 1:19
e|--------3--------------------------------3-|
B|--1-----------1-----1-----/6---5-----1-----|
G|----0-----0-----0-----0----------0---------|
D|-------------------------------------------|
A|--1---1-----1-----1-----0----------0-------|
E|-------------------------------------------|
  "And I will stay here"


  1:20 - 1:24
e|--0h1--0----------3-|
B|-------------3\1----|
G|---------0----------|
D|--------------------|
A|--0--------0--------|
E|--------------------|


  1:25 - 1:29
e|-------------0-----------------1-----3-----1-----|
B|--1----3-----------3-------------1-----1-----1---|
G|--0------0-----0-----0-----2---------------------|
D|--0--0-----0-----0-----0-3---3-----3-----3-----0-|
A|-------------------------------------------------|
E|-------------------------------------------------|
  "I could fall in love with...with.."


  1:30 - 1:36
e|-3-----3-----1-----3-----------3-----------3-----|
B|---1-----1-----1-----1-------1-----------1-------|
G|---------------------------1-----1-----1-----1---|
D|-2---2-----2-----2-----2-1---------1-1---------3-|
A|-------------------------------------------------|
E|-------------------------------------------------|
  "you."


  1:37 - 1:40
e|-----------|
B|--------1~-|
G|------0----|
D|----2------|
A|--0--------|
E|-----------|
Related for I Will Stay Here tab