Guitaretab - guitar tabs
Song name
# A B C D E F G H I J K L M N O P Q R S T U V W X Y Z

Steel Train - W 12th tab

--------------------------------------------------------------------------
			     W. 12th -  Steel Train
---------------------------------------------------------------------------
Tabbed by: Nick Randles
Email: nickrandles@ou.edu

I haven't seen a tab for this song yet, so I thought I'd give it a shot.
Listen to the song for timing. Please let me know if you have any
comments or corrections. Hats off to Jack for writing such an amazing
song.


Tuning: Standard

e|-------0h2h3p2------------------------------------2h3p2-----------------|
B|-----3--------3--------3---3------3/5----2h3p2----3-----3------8\-------|
G|---2------------2------2---1------2/4----2-----2-------------7----------|
D|-0------------------0------0------4/6---------------------5/7-----------|
A|------------------0-------2---0-------0--------------------------------|
E|------------------------------------------------------------------------|


e|------0h2h3p2----------------------------------------2h3p2----2----2-----|
B|----3--------3------3-------3-----3----5\3---2h3p2---2-----3----3----3---|
G|--2------------2------2-------1--------4\2---2-----2--------------2----2-|
D|0-------------------0---0---0----------6\4-------------------------------|
A|-----------------0-------------2---0------------------------------------|
E|-------------------------------------------------------------------------|

0:14
e|--------------------------------------------------------------------------|
B|--------3-----4---3---------3-----------3-----4------4---------2h3p2---8\-|
G|--------4-----6---4----2----4-----------4-----6------6------7-2-------7\-|
D|----0h4-------6--4----2----4-------0h4-------6------6------7-------------|
A|0-2-------0-4---2----0---0--2---0-2-------0-4----2/4----5/7----------7----|
E|--------------------------------------------------------------------------|


e|---------------------------------------------------------------------------|
B|----3-----4---3----------3---------3--------3-------3----3-----2----2----2-|
G|----4-----6---4-----2----4----------0--------0-------0-----2-----2----2----|
D|0h4-------6--4-----2----4------0h2------0h2-----0h2---------0-0---0----0--|
A|------0-4---2-----0---0--2-------------------------------0-----------------|
E|----------------------------0-0------0-2-----2-3------3--------------------|


e|------0h2h3p2---------------------------0-------0-------0---------------3-|
B|----3---------3------3---3---3------------3------3----------1-1-----1---1-|
G|--2-------------2---------------------------0------0--------0-0-----0---0-|
D|0-----------------0--3p0-0---0h2p0---0--2-----2------2------------0-----2-|
A|-----------------------------------3----------------------0-----2---------|
E|--------------------------------------------------------------------------|

[ Tab from: http://www.guitaretab.com/s/steel-train/61484.html ]
e|----------0-----3-----0-----0-----0-------------------------------|
B|---1--------1-----1-----1-----1-----1-----------------7+----------|
G|-----0--------0-----0-----0-----0-----0--------7-0--5+--5+--------|
D|-------0-----------------------------------5/7--------------------|
A|----------3-----2-----0-----0------------0------------------------|
E|-------------------------------------------5/7--------------------|

0:45
e|--------0h2h3p2-----------------------------------2h3p2---------------|
B|------3--------3--------3---3-----3/5----2h3p2----3-----3------8\-----|
G|----2------------2------2---1-----2/4----2-----2-------------7--------|
D|-0-------------------0------0-----4/6---------------------5/7---------|
A|-------------------0-------2---0------0------------------------------|
E|----------------------------------------------------------------------|


e|------0h2h3p2------------------------------------------------------------|
B|----3--------3------3-------3-----3-----8\7-7\5-5\3----2h3p2h3p2---7h8p7-|
G|--2------------2------2-------1---------7\6-6\4-4\2----2-----------7-----|
D|0-------------------0---0---0--------------------------------------------|
A|-----------------0-------------2----0-----0---0-----0-----------0-------|
E|-------------------------------------------------------------------------|


e|--------------------------------------------------------------------------|
B|--------3-----4---3----------3----------3-----4------4---------2h3p2---8\-|
G|--------4-----6---4-----2----4----------4-----6------6------7-2-------7\-|
D|----0h4-------6--4-----2----4------0h4-------6------6------7-------------|
A|0-2-------0-4---2-----0---0--2--0-2-------0-4----2/4----5/7----------7----|
E|--------------------------------------------------------------------------|


e|---------------------------------------------------------------------------|
B|----3-----4---3----------3--------3--------3--------3-----3-----2---2----2-|
G|----4-----6---4-----2----4---------0--------0--------0------2-----2---2----|
D|0h4-------6--4-----2----4-----0h2------0h2------0h2----------0-0---0---0--|
A|------0-4---2-----0---0--2--------------------------------0----------------|
E|---------------------------0-0-------0-2------2-3------3-------------------|

1:15
e|--------0h2h3p2-----------------------------------------------------------|
B|------3---------3------3---3---3--------3--3-----3-----3------3---3-3-----|
G|----2-------------2--------------------------2-----2-----2----------------|
D|-0------------------0--3p0-0---0h2p00--3--0---0-----0-----0-3p0-00h2h3-|
A|--------------------------------------------------------------------------|
E|--------------------------------------------------------------------------|


e|--------------------------------------------0h2h3p2---------------------|
B|---3-3--3------3-------3---3-----3--------3---------3---------3---3-----|
G|----------2------2----------------------2-------------2-------2---1-----|
D|-0-3-0------0------0---3p0-0h2h3-0-3--0---------------------0-----0-----|
A|---------------------------------------------------------0--------2-----|
E|------------------------------------------------------------------------|


| /  slide up
| \  slide down
| h  hammer-on
| p  pull-off
| ~  vibrato
| +  harmonic
| x  Mute note
=======================================================================
Related for W 12th tab