Song name
# A B C D E F G H I J K L M N O P Q R S T U V W X Y Z

Steel Train - Better Love tab

steel train-better love

capo: 4th
standard

 this sounds pretty similar
(:
and it pretty much revolves around a c chord so yeah.

rate!

i should be tabbing the rest in about a week


intro:
 
e|----------------1---0----|
b|------1-----1h3---1------|
g|--------0----------------|
d|----2-----2--------------|
a|--3----------------------|
e|-------------------------|

   
e|-------------------------|
b|------1-----------1------|
g|--------0-------0---0----|
d|----2-----2-2h3----------|
a|--3----------------------|
e|-------------------------|

   
e|----------------1---0----|
b|------1-----1h3---1------|
g|--------0----------------|
d|----2-----2--------------|
a|--3----------------------|
e|-------------------------|

  
e|-------------------------|
b|------1------------------|
g|--------0-----0----------|
d|----2-----2---2----------|
a|--3-----------3----------|
e|-------------------------|
Tap to rate this tab
# A B C D E F G H I J K L M N O P Q R S T U V W X Y Z