Song name
# A B C D E F G H I J K L M N O P Q R S T U V W X Y Z

Steel Train - Alone On The Sea tab

Help us improve GuitareTab! Take a short survey!
Tuning:Standard- E A D G B e

***Intro***
Riff 1
e|---------------------------------------------------------------------------|
B|---------------------------------------------------------------------------|
G|-----10101010--9999--7777--5555*--5555--77-99-77---------------------------|
D|---------------------------------------------------------------------------|
A|---------------------------------------------------------------------------|
E|---------------------------------------------------------------------------|
*repeat 3 times, on 4th continue
**Only play past * on intro (not between verse)

Riff 2
e|-----13131313--12121212---------------------------------------1212---------|
B|-------------------------15151515--13131313*--13131313--1515------1515-----|
G|---------------------------------------------------------------------------|
D|---------------------------------------------------------------------------|
A|---------------------------------------------------------------------------|
E|---------------------------------------------------------------------------|
*repeat 3 times, on 4th continue
**Only play past * on intro (not between verse)

***Verse***
    C    F    A    B
e|--x----x----x----x-------------------------------------------------------|
B|--8----8----2----4-------------------------------------------------------|
G|--9----10---2----4-------------------------------------------------------|
D|--10---10---2----4-------------------------------------------------------|
A|--x----x----0----2-------------------------------------------------------|
E|--x----x----x----x-------------------------------------------------------|
C-F for 3 counts, on fourth count A-B-C


***Pre-Chorus*** - Piano tabbed for guitar

     Play this over the C-F verse

e|-12--10--8-------------8--10s12*-----------------------------------------------------|
B|------------10-----10----------------------------------------------------------------|
G|-------------------------------------------------------------------------------------|
D|-------------------------------------------------------------------------------------|
A|-------------------------------------------------------------------------------------|
E|-------------------------------------------------------------------------------------|
*repeat


***Chorus***
    Bb   F   C
e|--6----1----8---------------------------------------------------------------|
B|--6----1----8---------------------------------------------------------------|
G|--7----2----9---------------------------------------------------------------|
D|--8--- 3----10--------------------------------------------------------------|
A|--8----1----10--------------------------------------------------------------|
E|--6----1----8---------------------------------------------------------------|


***Outro***
For the Outro, they just build up the verse twice then add the paino playing pre chorus 
over it for 2 more.

ORDER
Intro Riff 1
Intro Riff 2
Verse X 2
Pre-Chorus Riff
Chorus X 2
Intro Riff 1
Intro Riff 2
Verse X 2
Pre-Chorus Riff
Chorus X 4
Intro Riff 2 X 4
Verse
Outro
Related for Alone On The Sea tab