Song name
# A B C D E F G H I J K L M N O P Q R S T U V W X Y Z

Steeler - Abduction tab

-------------------------------------------------------------------------------
			     Abduction - Steeler
-------------------------------------------------------------------------------
Tabbed by: Devon
Email: Devon8822@hotmail.com

Tuning: Eb (down half step)

          b 1/2   
eb|-----------------------------15--13~-|-----------------------------15--15b(16)-15--13~--| 
Bb|------13b(14)-r(13)p11--13~----------|------13b(14)-r(13)p11--13~-----------------------|
Gb|--10~--------------------------------|--10~---------------------------------------------|
Db|-------------------------------------|--------------------------------------------------|
Ab|-------------------------------------|--------------------------------------------------|
Eb|-------------------------------------|--------------------------------------------------|  


Ending Variation:

|-----------------------------15--15b(16)-15--13--16b(18)--16--15--18b(20)--|
|------13b(14)-r(13)p11--13~------------------------------------------------|
|--10~----------------------------------------------------------------------|
|---------------------------------------------------------------------------|
|---------------------------------------------------------------------------|
|---------------------------------------------------------------------------|
Tap to rate this tab
# A B C D E F G H I J K L M N O P Q R S T U V W X Y Z