Song name
# A B C D E F G H I J K L M N O P Q R S T U V W X Y Z

Steelheart - Electric Chair tab

main riff:
e--5---6---7---8---------|
b--6---6---6---6---------|
g--7---7---7---7---------|
d------------------------|
a------------------------|
E------------------------|

("Oh, it's such a shame"):
e--3---3---3---3---------|
b--3---2---0---2---------|
g--0---0---0---0---------|
d------------------------|
a------------------------|
E------------------------|

Chorus:

D, F, C, A#
Tap to rate this tab
 
# A B C D E F G H I J K L M N O P Q R S T U V W X Y Z