Song name
# A B C D E F G H I J K L M N O P Q R S T U V W X Y Z

Steely Dan - Haitian Divorce tab

-------------------------------------------------------------------------------
			 haitian divorce (intro) - steely dan
-------------------------------------------------------------------------------
Tabbed by: chris
Email: voodoochild1787@yahoo.com

Tuning: down

intro( with wah)

e|-------------------------------------------------------------------|
b|--xx--xx-xx-x-xx----5--7b--5----5--7b~~~--7--9b--7-----7--9b/11~~~-|
G|--xx- xx-xx-x-  -------------7b---------------------9b-------------|
D|-------------------------------------------------------------------|
A|-------------------------------------------------------------------|
E|-------------------------------------------------------------------|

e|--10p9----11p9---------------|
B|-------10------11p9----------|
G|---------------------11------|
D|-----------------------------|
A|-----------------------------|
E|-----------------------------|


i think thats it
Tap to rate this tab
 
# A B C D E F G H I J K L M N O P Q R S T U V W X Y Z