Song name
# A B C D E F G H I J K L M N O P Q R S T U V W X Y Z

Steely Dan - Any Major Dude tab

I saw that no one had posted a tab of the little lick in between the verses of this 
so here goes. Please mail me if there's any questions.

---------------7----10-9--------------------7----10-9--7------------|
---8p7--7-8-10---10------10-----8p7--7-8-10---10---------8----------|
------9----------------------------9-----------------------7--------|
-------------------------------------------------------------9------|
--------------------------------------------------------------------|
--------------------------------------------------------------------|

---------------7----10-9----12---9-9-9-----12-9-|
---8p7--7-8-10---10------12-------------12------|
------9-----------------------------------------|
------------------------------------------------|
------------------------------------------------|
------------------------------------------------|

This is played over the chords A and G.

Enjoy
Tap to rate this tab
# A B C D E F G H I J K L M N O P Q R S T U V W X Y Z