Song name
# A B C D E F G H I J K L M N O P Q R S T U V W X Y Z

Steely Dan - The Fez tab

this is my first tab submitted.
i love this song and couldn't find it anywhere and while searching noticed other people 
it and couldn't find it either. so here goes my best interpretation along with beginner 
technique.

b=bend
/=slide up
\=slide down
r=release
^=tie
E---------------------15---------------------12----------------------------|
B------12------------------17\----------13-15----15r13-12-13r12-----12-----|
G---------14-14-14/16---16--------14b16------------------------14b15--12---|
D--/14------------------------------------------------------------------14-|
A--------------------------------------------------------------------------|
E--------------------------------------------------------------------------|


E------------------------------------------------------------------------|
B-------------------------------15-15---16-16---14b15--------------------|
G--11----------11--12---14^14b15-----/16-----16--------------------------|
D----12---12-----14--14--------------------------------------------------|
A------14---14-----------------------------------------------------------|
E------------------------------------------------------------------------|

E-----------------------------------------------|
B--17-------------------------------------------|
G-----16r15r14\12-------------------------------|
D----------------14-14--------------------------|
A-----------------------------------------------|
E-----------------------------------------------|

E------------------------------------------------|
B------------------------------------------------|
G--16-----14-------------------------------------|
D-----17-----16--17--14--16--13--14--------------|
A-----------------------------------14b15r14-----|
E------------------------------------------------|

more tasty chops in the song, i'll figure it out and post later.
have fun...john-
Tap to rate this tab
# A B C D E F G H I J K L M N O P Q R S T U V W X Y Z