Song name
# A B C D E F G H I J K L M N O P Q R S T U V W X Y Z

Steely Dan - Do It Again tab

Tabbed by: Joshua Garcia (halofreak731@aol.com)

Tabs for the song: Do It Again by Steely Dan
Please rate and let me know if you have any corrections. Thank you.

Couldn't find a proper solo for this tab anywhere so I decided to tab it 
myself. I would have done the whole tab but it wouldn't have come out 
accurate since I don't own an acoustic. I hope this helps, I worked really 
hard on it and I just know it's right.


Tuning: Standard (E A D G B E)


E||-------------------------------------------------------------------|
B||-------------------------------------------------------------------|
G||-------------------------------------------------------------------|
D||-5---5-5---5-----3-------5---3-----5---3----5------3----5----3p0---|
A||-------------5-----3-------5---3-----5----------5----3-----5-------|
E||-------------------------------------------------------------------|


E||---------------------------------------------------------------3---|
B||------------------------------------------------------1---3/5------|
G||------------------------------------------2---------2--------------|
D||-----3h5-----5----3h5-5p3----------3----------5---3----------------|
A||-3h5-------5--------------5--3h4h5-----5---------------------------|
E||-------------------------------------------------------------------|


E||-----3--6---5------3-----------------------------------------------|
B||-3/5----------6------3---6---5-----3-------------------------------|
G||-------------------------------5-----3---5---0-3--2---------2--5---|
D||----------------------------------------------------3-----3--------|
A||-------------------------------------------------------5-----------|
E||-------------------------------------------------------------------|


E||-------------------------------------------------------------3/5---|
B||-------------------------------------------------------3-6---------|
G||-3h5p3p2---2h5-3h5p3p2---2h5---3p2h3p2-----3h6-3h5p4p3-------------|
D||--------3h5-----------3h5-------------3h4h5------------------------|
A||-------------------------------------------------------------------|
E||-------------------------------------------------------------------|


E||--3--5-------3-----------------------------------------------------|
B||---------6-----3---6-5------3--------------------------------------|
G||-----------------------5--------5---5p3---------3------------------|
D||----------------------------------------5---3/5-----5p3---------3--|
A||--------------------------------------------------------3---3/5----|
E||-------------------------------------------------------------------|


E||-------------------------------------------------------------------|
B||----------------------------------------------8--8---8--8---8------|
G||----------------------------------3--5----5h6----5h6----5h6--------|
D||--------------------------3--3/5-----------------------------------|
A||-5p3-1------------3--3/5-------------------------------------------|
E||-------1--1/3--6---------------------------------------------------|


E||-------------------------------------------------------------------|
B||--8---8--8---8-----------------------------------------------------|
G||--5h6----5h6---6-5-3-------3--------------------------------5---7--|
D||---------------------5-3-5---5p4p3---------3-5---3/5----8----------|
A||-----------------------------------5p4p3h5-------------------------|
E||-------------------------------------------------------------------|


E||-------------------------------------------------------------------|
B||---6--8---6/8--11-----------11-------11--11/13----13-------13------|
G||-7-----------------10-10b12----10b12-----10/12b14----12b14---------|
D||-------------------------------------------------------------------|
A||-------------------------------------------------------------------|
E||-------------------------------------------------------------------|


E||-------------------------------------------------------------------|
B||-------11-------11--11/13----13-------13---------11-------11-------|
G||-10b12----10b12-----10/12b14----12b14------10b12----10b12----10b12-|
D||-------------------------------------------------------------------|
A||-------------------------------------------------------------------|
E||-------------------------------------------------------------------|


E||-------------------------------------------------------------------|
B||-11-------13-------13-13----------11-------11--10--10--8---8-6--8--|
G||----12b14----12b14----12b14-10b12----10b12-----10--10--------------|
D||-------------------------------------------------------------------|
A||-------------------------------------------------------------------|
E||-------------------------------------------------------------------|


E||-------------------------------------------------------------------|
B||-------------------------------------------------------------------|
G||-6---6-5--3---------3-------------------3--3-5-3---3-5-3----3------|
D||------------5-3h4h5---5--3---------3h5-----------5-------5---------|
A||---------------------------5---3h5---------------------------------|
E||-------------------------------------------------------------------|


E||-------------------------------------------------------------------|
B||-------------------------------------------------------------------|
G||-5h6-5p3-6p5p3-----3-6p5p3-----3h5p3-6p3-5p4p3---------------------|
D||---------------3h5---------3h5------------------5---3h5---3--------|
A||------------------------------------------------------------5------|
E||-------------------------------------------------------------------|


E||-----------------------------------------3-----6--3-5------3-------|
B||-----------------------------3-----6---3-----6---------6-----3-----|
G||-----------------3-----5---3-----3---------------------------------|
D||-----3-----5---3-----5---------------------------------------------|
A||-3h5-----5---------------------------------------------------------|
E||-------------------------------------------------------------------|


E||-------------------------------------------------------------------|
B||-6--5-----3--------------------------------------------------------|
G||-------5------5--3p2---------2-5---3h5p3-2-------------------------|
D||---------------------3-----3----------------3----------------------|
A||-------------------------5--------------------5--1-----------------|
E||----------------------------------------------------3--------------|




Tablature Legend
----------------
 h   - hammer-on
 p   - pull-off
 b   - bend
 r   - release bend
 *   - pinch harmonic
 '   - natural harmonic
 x   - mute note
 .   - palm mute
 /   - slide down
Tap to rate this tab
# A B C D E F G H I J K L M N O P Q R S T U V W X Y Z