Song name
# A B C D E F G H I J K L M N O P Q R S T U V W X Y Z

Steely Dan - Only A Fool Would Say That tab

Tabbed by Nick Ostan
This is the solo for this song starting around 2:10

2:10

|---10-10-10-10-10-10--10h13---11h12--10---8----8--10----------------------|
|---------------------------------------------------------10---------------|
|------------------------------9------9---------5--7------7h9p7/5------5---|
|-------------------------------------------------------------------7------|
|--------------------------------------------------------------------------|
|--------------------------------------------------------------------------|


|--------------------7h8b^-------------------------------------------------|
|-------------------------------------------------------10---10p8----------|
|---------------------------------------7p5------7--9------------9p7-------|
|---7-7-7-7-7-7-7-7-7---------7-7-7-7-7------------------------------------|
|--------------------------------------------------------------------------|
|--------------------------------------------------------------------------|


|-------------------------------------------------------8---10~------------|
|-----------------------------------------------8---10---------------------|
|---7-7-7-7-7-7p5-------------------5---7---9------------------------------|
|-----------------------7---5---7------------------------------------------|
|--------------------------------------------------------------------------|
|--------------------------------------------------------------------------|

\\LEGEND:\\

h  = hammer on
p  = pull off (onto the specified fret)
b^ = halftone bend
~  = vibrato

There's a lot of muting and crescendos I didn't put into the tab that you have to listen 
for -- I just tabbed the notes, so do what you want with them! FEEL THE MUSIC!
Tap to rate this tab
# A B C D E F G H I J K L M N O P Q R S T U V W X Y Z