Song name
# A B C D E F G H I J K L M N O P Q R S T U V W X Y Z

Steely Dan - Peg tab

SONG: Peg
ARTIST: Steely Dan
ALBUM: Aja
YEAR: 1977


    Gmaj9          F#7#9               Fmaj9            E7#9                 Ebmaj9
e|--------------|-------------------|----------------|--------------------|----------------|
B|--------------|-------------------|----------------|--------------------|----------------|
G|--4-----------|--9----------------|--4-------------|--7-----------------|--7-------------|
D|--5---7-5-7---|--8--------7-------|--5-------------|--6---------5-------|--5-------------|
A|--------------|--9----7-9-----9---|----------5-----|--7-----5-7-----7---|--6-------------|
E|--------------|-----9-------------|------8-----8---|------7-------------|------6--8--6---|

    D7#9                 Cmaj7 Gadd2/B    Cmaj7 Gadd2
e|--------------------|--3--3--3-------|--3--3--3---|
B|--------------------|--5--5--3-------|--5--5--3---|
G|--5-----------------|--4--4--2-------|--4--4--2---|
D|--4---------4-------|----------------|------------|
A|--5-------5-----5---|----------------|------------|
E|------5-8-----------|----------------|------------|

Then to the singing bit.
Tap to rate this tab
# A B C D E F G H I J K L M N O P Q R S T U V W X Y Z