Song name
# A B C D E F G H I J K L M N O P Q R S T U V W X Y Z

Steely Dan - The Ballad Of Fat Jesus tab

  E               E
I once believed in
    D              D
Our Lord and Savior
    A            A
But all I got was
  G            G
A big Fat Jesus

E                E
No one to talk to
D                    D
Oh he was right there
A                   A
He made kinky noises
G                        G
But That's just Fat Jesus

E
Fat Jesus
D
Fat Jesus
A                            G
The world needs to know your name
E
Fat Jesus
D
Fat Jesus
A                            G
The world needs to know your name
A                            G
The world needs to know your name

Solo

E---------------------------------|
B---------------------------------|
G--7h5p0-7h5p0-7h5p0-7h5p0-7h5p0--|
D---------------------------------|
A---------------------------------|
e---------------------------------|

E---------------------------------|
B--5h3p0-5h3p0-5h3p0hold----------|
G---------------------------------|
D---------------------------------|
A---------------------------------|
e---------------------------------|

E---------------------------------|
B--5h7p0-5h7p0-5h7p0-5h7p0-5h7p0--|
G---------------------------------|
D---------------------------------|
A---------------------------------|
e---------------------------------|

E---------------------------------|
B--3h5p0-5h3p0-5h3p0hold----------|
G---------------------------------|
D---------------------------------|
A---------------------------------|
e---------------------------------|

E---------------------------------|
B---------------------------------|
G--7-----5-----3------5------7----|
D--7-----5-----3------5------7----|
A---------------------------------|
e---------------------------------|

E---------------------------------|
B---------------------------------|
G--7-----5-----3------5------3-0--|
D--7-----5-----3------5------3-0--|
A---------------------------------|
e---------------------------------|
Tap to rate this tab
# A B C D E F G H I J K L M N O P Q R S T U V W X Y Z