Stef Lang - Mr Immature tab

Artist: Stef Lang
Song: Mr. Immature

*Note* - Listen to the song for the rhythm. I have indicated where to play each part at 
bottom of the tab.

*Intro/Verse*
E|-------------------------------|
B|-------------------------------|
G|------6---------6--------------|
D|-7-6-6-77-66-6-----------------|
A|-7-6-4-77-66-4-----------------|
E|-5-4----55-44------------------|

*Chorus*
E|-----------------------------------------|
B|-----------------------------------------|
G|---------9-------------------------------|
D|----7----9----9----7-----------4---------|
A|----7----7----9----7----OR---4-----------|
E|----5----------7----5-----------6--------|

*Bridge Fill*
E|--------------------------|
B|--------------------------|
G|--------------------------|
D|--4--7----4--7------------|
A|--4--7----4--7------------|
E|--2--5----2--5------------|

*Bridge*
E|----------------------------|
B|----------------------------|
G|--9-------------------------|
D|--9----9----7----4----------|
A|--7----9----7----4----------|
E|--------7----5----2---------|

*Indications*

**Intro/Verse**
Here you go again
Banging on my bedroom door
Your game is wearing thin
Loving you is such a chore
You're overrated, intoxicated
You're just a boy without a clue
Sick of your temper
I Don't remember what I ever saw in you

**Chorus**
Grow up Mr. Immature
I'm getting tired of your misbehaving
If I wanted a child, then I would have had a baby
Get out Mr. Insecure
It's clear to me that you're never changing
I need a man, not a boy that drives me crazy

**Intro/Verse**
Here you go again
With your broke ass philosophy
Smoking all my cigarettes
While you're running your mouth on me
(runnin' runnin')
You cry for attention
Constant affection
Baby, you've got to face the truth
Time to get sober
Wake up, it's over
I'm breaking up with you

**Chorus**
Grow up Mr. Immature
I'm getting tired of your misbehaving
If I wanted a child, then I would have had a baby
Get out Mr. Insecure
It's clear to me that you're never changing
I need a man, not a boy that drives me crazy

**Bridge Fill**

**Bridge**
So get up, get out, get off my bed
Own up to all the things you've said
You, baby
You always said you had it rough
But I had it worse, I've had enough
You're crazy

**Chorus**
Get out Mr. Insecure
It's clear to me that you're never changing
I need a man, not a boy who needs to

**Chorus**
Grow up Mr. Immature
I'm getting tired of your misbehaving
If I wanted a child, then I would have had a baby
Get out Mr. Insecure
It's clear to me that you're never changing
I need a man, not a boy that drives me crazy

Na-na na-na na-na na-na (x3)
If I wanted a child, then I would have had a baby
Yeah eeaah
I need a man, not a boy that drives me crazy
Tap to rate this tab
 
# A B C D E F G H I J K L M N O P Q R S T U V W X Y Z