Song name
# A B C D E F G H I J K L M N O P Q R S T U V W X Y Z

Stefan Raab - Wir Kiffen tab

Stefan Raab - Wir Kiffen

I couldn't figure out the riffs and stuff, but since I didn't see this song anywhere else,
I thought I could at least put up the main part. Here it is:

You can play it at two different octaves:
Option one:
e|-------------------------------------------------------|
B|-------------------------------------------------------|
G|-------------------------------------------------------|
D|-------------------------------------------------------|
A|--------3--7--3--5--0--5-------------3--7--3--5--0--3--|
E|--3--5--------------------------3--5-------------------|

Option two:
e|-------------------------------------------------------|
B|-------------------------------------------------------|
G|--------5--9--5--7-----7--------------5--9--5--7-----5-|
D|--5--7--------------7-----------5--7--------------7----|
A|-------------------------------------------------------|
E|-------------------------------------------------------|

You can play a combination of both if you like. As I said, I couldn't figure out the
solos, but when I do, I'll post 'em.
I am also very sure that this tab is correct. But if it isn't, I'd be glad about some
corrections or comments. Please send any comments to:
ami_beni@web.de

Thanx,
            *Ben*
Tap to rate this tab
# A B C D E F G H I J K L M N O P Q R S T U V W X Y Z