Song name
# A B C D E F G H I J K L M N O P Q R S T U V W X Y Z

Stella - Kultasiipi chords

Highlighted       Show chord diagrams
-------------------------------------------------------------------------
KULTASIIPI - Stella
-------------------------------------------------------------------------
Tabbed by: Kengus

Standard tuning
Capo on first fret!

INTRO
  Bm                                   D                  G
e|-----------------------------------------------------------------------|
B|------3---3\2---2---0----0---0-----0----------------------3---3-2-0----|
G|---------------------------------2-----2--2-2-2-------------0----------|
D|--3/4---4-----2---0----0---0---------4---------------------------------|
A|-------------------------------4---------------------0-----------------|
E|-------------------------------------------------0h2----3--------------|
   Em       Bm
e|--------------------------------------|
B|----------------------------------3---|
G|-0---0h2--------------------------4---|
D|-2--------4---0-------------------4---|
A|----------2-2----2/5-5-5-5\4-4\2--2---|
E|-0-0----------------------------------|

VERSE1
Bm                                     D
Mulla ei oo ketään muuta, jolta voisin pyytää
G                                       D       (A/C#) (x42200)
Apua kun yö vaanii, iskee veistä, antaa selkään
Bm                               Bm/A
Toivot, etten menisi kun siivet kantaa
     G                            Dsus2/F#
Vaan jäisin vielä luoksesi sun kotiluolaan
D                   D/F#  A
Aamulla vaan uskoa koetellaan

CHORUS
              G                       D    D/F#
Nyt sä tahdot tietää, tietää kestääkö tää
G    Em               Bm
Tietää, että viereesi jään
              G                       D    D/F#
Nyt sä tahdot tietää, tietää kestääkö tää
G    Em               Bm
Tietää, että viereesi jään

INTERLUDE (repeat intro)

VERSE2
Bm                                        D
Toista yötä vuokseni valvot, harsotat mun haavat
     G                                     D       (A/C#)
Olen hädin tuskin tajuissani, yksin huolta kannat
Bm                          Bm/A
Pohdit itseksesi ja oot epävarma
   G                        Dsus2/F#
Ei laukku pysy pakattuna sattumalta
D                         D/F#   A
Kuinka tän käy, lennänkö luotasi   pois?

CHORUS
              G                       D    D/F#
Nyt sä tahdot tietää, tietää kestääkö tää
G    Em               Bm
Tietää, että viereesi jään
              G                       D    D/F#
Nyt sä tahdot tietää, tietää kestääkö tää
G    Em                   Bm...
Tietää......että viereesi jään

INTERLUDE
....G  D  A/C#  A
Bm  G  D  A/C#  A

CHORUS
              G                       D
Nyt sä tahdot tietää, tietää kestääkö tää
G    Em               Bm
Tietää, että viereesi jään
              G                       D
Nyt sä tahdot tietää, tietää kestääkö tää
G    Em               Bm...
Tietää, että luoksesi jään

BRIDGE
     ...G                D     A/C#       Bm
Pakatut laukut oven vieressä, kuinka tän käy?
             G             D                  Bm...
Ootko vain vieras mun elämässä, kuinka meidän käy?

INTERLUDE
....G  D  A/C#  A
Bm  G  D  A    Bm...

OUTRO (picking)
                                    ...D
Mulla ei oo ketään muuta, jolta voisin pyytää
G                                       Bm
Apua kun yö vaanii, iskee veistä, antaa selkään.

=========================================================================
Tap to rate this tab
 
# A B C D E F G H I J K L M N O P Q R S T U V W X Y Z