Song name
# A B C D E F G H I J K L M N O P Q R S T U V W X Y Z

Stellar Kart - Shine Like The Stars tab

Tabbed by: jamuel24
Email: jam_tecus12@hotmail.com

Tuning: Half-step Down
Intro (just bass at the start, then this) 2x :
eb|---------------------------------------------------------------------------|
Bb|---------------------------------------------------------------------------|
Gb|---------------------------------------------------------------------------|
Db|---------------------------------------------------------------------------|
Ab|--2222--5-2-000--7-9-7-5---------------------------------------------------|
Eb|--------------------------0000-3-0000-3-0----------------------------------|

Verse (keep these chords throughout, but the rhythm changes and there's some muting):
eb|---------------------------------------------------------------------------|
Bb|---------------------------------------------------------------------------|
Gb|-4~------44----------------------------------------------------------------|
Db|-4~------44--66--55--2-----------------------------------------------------|
Ab|-2~------22--66--55--2-----------------------------------------------------|
Eb|-------------44--33--0-----------------------------------------------------|

Chorus
eb|---------------------------------------------------------------------------|
Bb|---------------------------------------------------------------------------|
Gb|---------------------------------------------------------------------------|
Db|---5-5-5-5--4-4-4-4--2-2-2-2-2-2-2-2--5-5-5-5--4-4-4-4--7-7-7-7-7-7-7-7----|
Ab|---5-5-5-5--4-4-4-4--2-2-2-2-2-2-2-2--5-5-5-5--4-4-4-4--7-7-7-7-7-7-7-7----|
Eb|---3-3-3-3--2-2-2-2--0-0-0-0-0-0-0-0--3-3-3-3--2-2-2-2--5-5-5-5-5-5-5-5----|

eb|---------------------------------------------------------------------------|
Bb|---------------------------------------------------------------------------|
Gb|---------------------------------------------------------------------------|
Db|--222-222-222-222--555-555-555-555----5-5-5-5--4-4-4-4--2-2-2-2-2-2-2-2----|
Ab|--222-222-222-222--555-555-555-555----5-5-5-5--4-4-4-4--2-2-2-2-2-2-2-2----|
Eb|--000-000-000-000--333-333-333-333----3-3-3-3--2-2-2-2--0-0-0-0-0-0-0-0----|

Verse again, this time the guitar comes in earlier, afterwards do the

Bridge :
eb|------------------------------------------------|
Bb|------------------------------------------------|
Gb|-----------------4/7\4/11-----4/7\4/11-------9--|
Db|--7--2~--7--2~---x/x\x/x-(8x)--x/x\x/x--(8x)-x--|
Ab|--7--2~--7--2~---2/5\2/9------2/5\2/9--------7--|
Eb|--5--0~--5--0~----------------------------------|                         ^
              2 guitars here, second one plays the Chorus part

Then it's back to the Chorus

After that is the intro again, finish with the beginning of the bridge
Tap to rate this tab
# A B C D E F G H I J K L M N O P Q R S T U V W X Y Z